Chuck Berry - Johnny B Goode Chords & Tabs

 

Johnny B Goode Chords & Tabs

Chuck Berry Chords & Tabs

Version: 3 Type: Tab 0 ratings
1 star 2 stars 3 stars 4 stars 5 stars
comments

Johnny B Goode Tab

Johnny B. Goode

Standard Tuning

|----------6s7-7-7-6s7-7-7-6s7-7--7----------------|
|-----7-9--6s7-7-7-6s7-7-7-6s7-7----10-9-7---------|
|-7s8--------------------------------------7-8-----|
|----------------------------------------------9-9-|
|--------------------------------------------------|
|--------------------------------------------------|

|--------------------------------------|
|----------------------7-9-7-----------|
|------------------7s8-8-8-8-7s6-4-----|
|-9-9-9-9-9-9-9-9------------------6---|
|-9-9-9-9-9-9-9-9----------------------|
|--------------------------------------|

|---------------------------------------------7----------------------------7--|
|--------------7--------------7---------------7--------------7-------------7--|
|-10b11-(11)-----10b11-(11)-----10b11-(11)------10b11-(11)-----10b11-(11)-----|
|-----------------------------------------------------------------------------|
|-----------------------------------------------------------------------------|
|-----------------------------------------------------------------------------|


|--------------------------------------------------------------------------7--|
|--------------7--------------7---------------7--------------7-------------7--|
|-10b11-(11)-----10b11-(11)-----10b11-(11)------10b11-(11)-----10b11-(11)-----|
|-----------------------------------------------------------------------------|
|-----------------------------------------------------------------------------|
|-----------------------------------------------------------------------------|

|-------------7--------9-7-------------------7----|
|---------------10-9-7------10-9-7---------7---10s|
|-10b11-(11)-----------------------9-7s8-8--------|
|-------------------------------------------------|
|-------------------------------------------------|
|-------------------------------------------------|

|-------------------------------------------------|
|-9-7------------7------------7-9---7-------------|
|-----10b11-(11)---10b11-(11)---9-6h8-------------|
|--------------------------------------9----------|
|-------------------------------------------------|
|-------------------------------------------------|


   Verse
    $
    $$
                       4x     
||---------------------||-||---------------------||
||o-------------------o||-||o-------------------o||
||---------------------||-||---------------------||
||---------------------||-||--9-9-11-9-9-9-11-9--||
||o-9-9-11-9-9-9-11-9-o||-||o-7-7--7-7-7-7--7-7-o||
||--7-7--7-7-7-7--7-7--||-||---------------------||



||---------------------||
||o-------------------o||
||---------------------||
||---------------------||
||o-9-9-11-9-9-9-11-9-o||
||--7-7--7-7-7-7--7-7--||


                                           On D.S. To Coda
                               On D.S.S. to Double To Coda

||---------------------------||-||---------------------||
||o-------------------------o||-||o-------------------o||
||---------------------------||-||---------------------||
||--11-11-13-11-11-11-13-11--||-||---------------------||
||o--9--9--9--9--9--9--9--9-o||-||o-9-9-11-9-9-9-11-9-o||
||---------------------------||-||--7-7--7-7-7-7--7-7--||


   Chorus 1
                                    4x
||--------------------------|-------||
||o----9s10-10-10-10-12\----|------o||
||----10s11-11-11-11-11\----|-------||
||--------------------------|-------||
||o-------------------------|------o||
||--------------------------|-------||


                                               D.S. al Coda

|-------------------------|----------|----------|-----------||
|----9s10-10-10-10-12--9\-|----------|----------|-----------||
|---10s11-11-11-11-11--9\-|----------|----------|-----------||
|-------------------------|----------|----------|-----------||
|-------------------------|----------|----------|-----------||
|-------------------------|----------|----------|-----------||


   Chorus 2
    &
                                                      3x
||--------------------------------------------|-------||
||o--------------7-7------------7-------------|------o||
||----10b11-(11)-----10b11-(11)---10b11-(11)--|-------||
||--------------------------------------------|-------||
||o-------------------------------------------|------o||
||--------------------------------------------|-------||



|----------------------------------|----------|
|--------------7-7------------7----|----------|
|---10b11-(11)-----10b11-(11)------|----------|
|----------------------------------|----------|
|----------------------------------|----------|
|----------------------------------|----------|



|---------------------------------------------|
|--------------7-7------------7------------7--|
|---10b11-(11)-----10b11-(11)---10b11-(11)----|
|---------------------------------------------|
|---------------------------------------------|
|---------------------------------------------|


[ Tab from: http://www.guitartabs.cc/tabs/c/chuck_berry/johnny_b_goode_tab_ver_3.html ]
|-------------------------------|----------|----------------||
|------------7------------------|----------|------------7---||
|-10b11-(11)---10b11-(11)-------|----------|--------7s8---9-||
|-------------------------------|----------|----------------||
|-------------------------------|----------|----------------||
|-------------------------------|----------|----------------||


 Guitar Solo

|-7-7-7-7-7---------|-7-7-7-7-7---------|
|-7-7-7-7-7-9-------|-7-7-7-7-7-9-------|
|-----------9-7h8---|-----------9-6h8-8-|
|-----------------9-|-----------------9-|
|-------------------|-----------------9-|
|-------------------|-------------------|



|-7---------7---------|-7---7---7---------|
|-7-9---7---7-9---7---|-7---7---7-----7---|
|---9-7h8-----9-7h8---|-------9---9-6h8---|
|---------9---------9-|-----------------9-|
|---------9---------9-|-------------------|
|---------------------|-------------------|



|-----------7------9-7-|------7-----------7--7--|
|-------------10-------|-10-9-7---------7-7-(7)-|
|---10s11--------------|--------9-7h8-8---------|
|----------------------|------------------------|
|----------------------|------------------------|
|----------------------|------------------------|



|-7-------7--7---7---7--|-7-------7---------|
|---9-7---7-(7)-(7)-(7)-|---9-7---7-9-7-----|
|-------8---------------|-------8-------8---|
|-----------------------|-------------------|
|-----------------------|-------------------|
|-----------------------|-------------------|



|-7-7-7-7-7---------|-----------------------------------------------|
|-7-7-7-7-7-9-------|---9b10-(10)--9b10-(10)--9b10-(10)--9b10==(10)r|
|-----------9-7h8---|---9b11-(11)--9b11-(11)--9b11-(11)--9b11==(11)r|
|-----------------9-|-----------------------------------------------|
|-------------------|-----------------------------------------------|
|-------------------|-----------------------------------------------|



|--------------------|------------||
|-(9)-7----9---7-----|------------||
|-(9)-8----9-7h8-----|-8----------||
|----------------9---|-9----------||
|--------------------|-9----------||
|--------------------|------------||



|-7-7-7-7-7---------|-7-7-7-7-7---------|
|-7-7-7-7-7-9-------|-7-7-7-7-7-9---7---|
|-----------9-7h8---|-----------9-7h8-8-|
|-----------------9-|-----------------9-|
|-------------------|-------------------|
|-------------------|-------------------|



|-7---------7---------|-7---------7----------|
|-7-9---7---7-9---7---|-7-9---7---7----------|
|---9-7h8-----9-7h8-8-|---9-7h8-----9-7h8-8--|
|---------9---------9-|---------9---------9--|
|---------------------|-------9--------------|
|---------------------|----------------------|



|---------------7-------------7-|------------7-------------7------------|
|----9b10-(10)--7-9b10-(10)---7-|-9b10-(10)--7-9b10-(10)---7-9b10-(10)--|
|----9b11-(11)----9b11-(11)-----|-9b11-(11)----9b11-(11)-----9b11-(11)--|
|-------------------------------|---------------------------------------|
|-------------------------------|---------------------------------------|
|-------------------------------|---------------------------------------|



|-7-------------7-------------7-|------------7-------------7-7-7--|
|-7--9b10-(10)--7-9b10-(10)---7-|-9b10-(10)--7-9b10-(10)---7-7-7--|
|----9b11-(11)----9b11-(11)-----|-9b11-(11)----9b11-(11)----------|
|-------------------------------|---------------------------------|
|-------------------------------|---------------------------------|
|-------------------------------|---------------------------------|



|-10b11-(111)-7-9-7-------------|
|------------7-7-7-10-9---7-----|
|------------------10-9-7h8-----|
|---------------------------(9)-|
|-------------------------------|
|-------------------------------|


                                                           D.S.S. al Dbl. Coda
 |----------------------------------------------|----7---7-7-------|------------||
|------------7------------7------------7-------|----7---7-7-9---7-|------------||
|-10b11-(11)---10b11-(11)---10b11-(11)---9-7h8-|------------9-7h8-|------------||
|----------------------------------------------|-x----------------|-9----------||
|----------------------------------------------|------------------|------------||
|----------------------------------------------|------------------|------------||


 Out-Chorus
  &&

|--------------------|----------------|
|---------9s10-10-10-|-10-12-10-------|
|--------10s11-11-11-|-11-11-11-------|
|--------------------|----------------|
|--------------------|----------------|
|--------------------|----------------|



||---------------------|-------------------||
||o---------9s10-10-10-|-10-12-10\--------o||
||---------10s11-11-11-|-11-11-11\---------||
||---------------------|-------------------||
||o--------------------|------------------o||
||---------------------|-------------------||



|--------------------|-----------------------|-------------------|
|---------9s10-10-10-|-10-12-10----9s10---10-|-12-------10-10-10-|
|--------10s11-11-11-|-11-11-11----9s11---11-|-11-------11-11-11-|
|--------------------|-----------------------|-------------------|
|--------------------|-----------------------|-------------------|
|--------------------|-----------------------|-------------------|



|----------|-----------------|----------------*|
|----------|-----------------|----------------*|
|----------|-4-4-----4-4-----|-4-4---4-(4)----*|
|----------|-4-4---x-4-4---x-|-4-4---4-(4)----*|
|----------|-----------------|----------------*|
|----------|-----------------|----------------*|
Comments