Chuck Berry - Johnny B Goode Chords & Tabs

 

Johnny B Goode Chords & Tabs

Chuck Berry Chords & Tabs

Version: 2 Type: Bass Tab 0 ratings
1 star 2 stars 3 stars 4 stars 5 stars
comments

Johnny B Goode Bass Tab

   
this record is played on bass using TWELVE BAR BLUES. a lot of late 70s/ early
80s artist use twelve bar blues on bass, so once u grasp the concept of them, see
if there are other tracks which use them, and then maybe write tabs of your own.
but anyway, enjoy.

INTRO (just after guitar solo, on drum crash)
G--------------
D--------------
A--------------
E--6~----------
[ Tab from: http://www.guitartabs.cc/tabs/c/chuck_berry/johnny_b_goode_btab_ver_2.html ]
MAIN 12 BAR BLUES RIFF (VERSE AND CHORUS) dont play 1st 10 after intro!
G------------|--------------------------------------------------------------
D------------|--------------------------------------------------------------
A------------|-6666666666-----------88888888-66666666---------8-8-8-8-8-8-8-
E--6666666666|------------6666666666------------------66666666--------------

VERSE AND CHORUS VARIATIONS (optional)

E-77-88-99-10-10- (then back onto A)

A-55-44-33-22- (then back onto E)

G-------------------------------------------
D--------7--------5-------------------------
A--888888-8-666666-6----------8-8-8-8-8-8-8-
E--------------------66666666---------------
Comments