Chubby Checker - Twist Chords & Tabs

 

Twist Chords & Tabs

Chubby Checker Chords & Tabs

Version: 1 Type: Bass Tab 0 ratings
1 star 2 stars 3 stars 4 stars 5 stars
comments

Twist Bass Tab

   
Song: The Twist
Artist: Chubby Checker
Tabbed: Rippleseeker
Note: Chord symbols written above measure. The third measure of "A" in the verse is a
half note followed by a half rest. The second "E" in the intro has two half notes. The
rest of the notes are all quarters.


Intro
  B       A       E       E
G------------------------------------------|
D-9-9-9-9-7-7-7-7--------------------------|
A-----------------7-7-----7-------7--------|
E---------------------7-7------------------|
[ Tab from: http://www.guitartabs.cc/tabs/c/chubby_checker/twist_btab.html ]
Verse/Chorus
  E       E       E       E       A       A
G--------------------------------------------------|
D---------------------------------7-7-----7-7---7--|
A-7-7-----7-7-----7-7-----7-7---7-----7-7-----7----|
E-----7-7-----7-7-----7-7-----7--------------------|
  E       E       B       A
G---------------------------------------------------|
D---------------------------------------------------|
A-7-7-----7-7---7-9-9-9-9-7---------7-7-----7-7-----|
E-----7-7-----7-------------------------7-7-----7-7-|

  E       E       E       E       A       A
G!-------------------------------------------------|
D---------------------------------7-7-----7-7---7--|
A-7-7-----7-7-----7-7-----7-7---7-----7-7-----7----|
E-----7-7-----7-7-----7-7-----7--------------------|
  E       E       B       A
G---------------------------------------------------|
D---------------------------------------------------|
A-7-7-----7-7---7-9-9-9-9-7---------7-7-----7-7-----|
E-----7-7-----7-------------------------7-7-----7-7-|

After going through the Verse/Chorus go to where the "!" is and play while fading out.
Comments