Chrono Cross - Times Scar Chords & Tabs

 

Times Scar Chords & Tabs

Chrono Cross Chords & Tabs

Version: 1 Type: Tab

Times Scar Tab

Opening chord:
--0--
--3--
--4--
--2--
-----
-----

Intro
---------------------------------------|
-----------3-----3-----------3-----3---|
---------0-----0-----------0-----0-----|
-------4-----4-----------4-----4-------|
-----2-----------------2---------------|
---0-----------------0-----------------|

                           rit.
---------------------------------0-----|
-----------3-----3---------------------|
---------0-----0-----------0-----------|
-------4-----4-----------4-------------|
-----2-----------------2---------------|
---0-----------------0-----------------|
End int.


---------------------------------------|
-----------3-----3-----------3-----3---|
---------0-----0-----------0-----0-----|
-------4-----4-----------4-----4-------|
-----2-----------------2---------------|
---0-----------------0-----------------|


-----------0-----------------0----------|
---------3-------3---------3------------|
-------0-------0---------0-------0------|
-----4-------4---------4-------4---4----|
---3------------------3-----------------|
----------------------------------------|

[ Tab from: http://www.guitartabs.cc/tabs/c/chrono_cross/times_scar_tab.html ]
-----------------------------2p0--------|
-----------3-----3---------------3---3--|
---------0-----0-----------0-------0----|
-------4-----4-----------4--------------|
-----2-----------------2----------------|
---0-----------------0------------------|


-----------0---0------------0---0-------|
-----------0---0------------0---0-------|
---------2----------------2-------------|
-------3-----3---3------3-----3---3-----|
-----3----------------3-----------------|
---1----------------1-------------------|


-----------------------------2p0--------|
-----------3-----3---------------3---3--|
---------0-----0-----------0-------0----|
-------4-----4-----------4--------------|
-----2-----------------2----------------|
---0-----------------0------------------|


-------3-----2---------0------------------|
-------3-----3----3----------0--1------0--|
-------0-----2--2---2------0----0----1----|
-----0-------0-----------4------2--2------|
--------------------------------3---------|
---3--------------------------------------|


------------2-----------------------------0----|
---0-----3------3-----5-3-5---------------0----|
-------0------2---2------------------7-4--0----|
-----0----------------5-4-5------4h5------2(4)-|
------------------------------------------2----|
------------------------------------------0----|