Chrono Cross - Radical Dreamers Chords & Tabs

 

Radical Dreamers Chords & Tabs

Chrono Cross Chords & Tabs

Version: 1 Type: Tab 0 ratings
1 star 2 stars 3 stars 4 stars 5 stars
comments

Radical Dreamers Tab

RADICAL DREAMERS

Composed & Arranged by: Yasunori Mitsuda
Words by: Noriko Mitose

Acoustic Guitar: Tomohiko Kira
Vocal: Noriko Mitose

Recorded & Mixed by: Kenzi Nagashima
Assistant Engineer: Ken Hiranai
Recording Coordinator: Kenichi Funayama

(Tabbed by Stefan Uddenberg aka Sir Charles Remington III--- rahonavis75@hotmail.com)


MAIN RIFF (repeated throughout most of the song)

--------------------------------|-----2----------------2---------|---|
-----------0--------------0-----|---------3--------2-------2-----|---|
-------2-------2------2-------2-|-------------4--------------2---|---|
-----0-------0------2-------2---|---4-------4--------4---------4-|---|
-----------------0------0-------|2------2--------0-------0-------|---|
--3------3----------------------|--------------------------------|---|

For much of the song, play this main riff twice, except for the second playthrough,
replace that which is bordered by vertical lines with the below segments, on every
other play through until much later in the song.


The section encapsulated by vertical lines is replaced with

Different Endings (In order)
	Each set is a different ending

----------0--------0----|
--------0---0------0----|
------2-------2----1----|                           #1
----2-----------2--2----|
------------------------|
--0---------------------|

------------------------|
-----------5--------4---|
--------4-----4---------|
-----4-----------4------|
--2-----------------2---|                           #2a
------------------------|

---------------------------------|
-----------0--------------2------|
-------0-------0------4-------3--|                  #3a
-----2-------2------4-------4----|
---------------------------------|
--0------0-------2------2--------|


------2---------------2---------|
----------2---------------2-----|
----4-------4P3-----3-------3---|                   #4a
---4--------------4-----------4-|
--------------------------------|
-2------2-------2-------2-------|


---------------------------------------------------|
---------0-------2-------2-------------------------|
-----0-------0-------4-------3---------------------|
---2-------2-------4-------4-----------------------|#3b
---------------------------------------------------|
-0-----0-------2-------2---------------------------|

----------------------2----------------------------|
----------2-------2-------2------------------------|
------4-------4P3-----------3----------------------|#5
----4-------4-------4---------4--------------------|
---------------------------------------------------|
-2------2-------2-------2--------------------------|

Instead of playing the Main ending (ie. the one played throughout the song and is
replaced by the above endings on every other play through), play this ending, which
is the Second Main Ending.

-----------------------------------------|
------------------3--------2-------------|
------2---4---2-------4--------2---------|
----4-------4-------4--------4-----------|           M2
----------------2--------0---------------|
-2------2--------------------------------|

(Not totally sure about this one, but it sounds good)
---------------------------------|
------3---5---3-------2----------|
----2-------2-----4-------4------|
--------------------4---4---4----|                   M2 #1
-2------2-------2--------------2-|
---------------------------------|

Play M2 again, then play this...

------------------------------5--|
-----------0----------------7----|
------2------------2/7----7------|
----0------------2--/7--7--------|                   Doesn't really deserve a number
--------------0------------------|
-3------3------------------------|

Repeat M1 and then #1, then this...

-------------------------------------|
-------------------------------------|
-------------------------------------|
-------------------------------------|               Same as above
-------------------------------------|
-0-2-3-------------------------------|

Repeat M1, as usual, and play this...
---------------------|
-------5-------5-4---|
-----4-------4-------|                                #2b
---4-------4---------|
-2-------2-------2---|
---------------------|

[ Tab from: http://www.guitartabs.cc/tabs/c/chrono_cross/radical_dreamers_tab.html ]
----------------------------------2-----|
------------0---------------------2-----|
------0---------0------2----------------|
----2---------2------------4----------3-|
-------------------------4----------4---|             #3c
-0-------0---------2----------2---------|

----------2---------------2--------|
--------2---2-----------2---2------|
------4-------4-------3-------3----|
----4-----------4---4-----------4--|                  #4b
-----------------------------------|
--2---------------2----------------|


Play M2, and on second play through, this is played...
----------0------------------0-------|
------3-------3----------2-------2---|
----4---4---4---2------2---2---2---2-|
-------------------------------------|
-------------------------------------|                M2 #2a
-2-----------------0-----------------|
-------------------------------------|


Play Second major riff and first ending after

(play this, new stink chord introduced, possibly hardest part of the song, take your 
learning it)

-------2---------------2----------------2---------------------------------|
-----------3---------------3----------3-----3-----------3---2-------------|
-----4-------4-------0---------0----2---------2-------2-------2-----------|
---4-----------4---4---------4----0-------0-----0---2-----------2---------|
-2-------2----------------------------------------0-------0---------------|
-----------------3-------3------------------------------------------------|


-------2---------------2------------------0-------------------------------|
-----------3-------------3------------0-----------0-----------------------|
-----4-------4-------0-----0--------7---------7-----6---------------------|
---4-----------4---4---------4----7---------7---------7-------------------|
-2-------2----------------------0-------0-------0-------------------------|
-----------------3-------3------------------------------------------------|
(next part is basically the same as the one 2 above, just with 2 notes different)

-------2---------------2---------------2------------------------------------|
-----------3---------------3---------3-----3-----------3---2----------------|
-----4-------4-------0-------0-----2---------2-------2-------2--------------|
---4-----------4---4-----------4-0-------0-----0---2-----------2------------|
-2-------2---------------------------------------0-------0------------------|
-----------------3-------3--------------------------------------------------|


                                                                (uncertain about here)
ditto ditto ditto ditto ditto ditto ditto ditto-----------0-------------0---------|
ditto ditto ditto ditto ditto ditto ditto ditto-------0-----------0-------0-------|
ditto ditto ditto ditto ditto ditto ditto ditto-----7---------7-----6-------6-----|
ditto ditto ditto ditto ditto ditto ditto ditto---7---------7---------7-------7---|
ditto ditto ditto ditto ditto ditto ditto ditto-0-------0-------0-----------------|
ditto ditto ditto ditto ditto ditto ditto ditto-----------------------------------|


repeat the first couple of stink parts and insert this where it is appropriate


---------0-------------0-----------------------|
-------0---0-------0-------0-------------------|
-----7---------7---------------6---------------|
---7---------7-------7-------7-----------------|
-0---------------0-------0---------------------|
-----------------------------------------------|


Repeat first stink part and insert this at the end of the second play through
(-0:41)
-----------0------------0----------------------|
-------0------------0-------0------------------|
-----7---------7------6-------6----------------|
---7---------7------------------7--------------|
-0-------0-------0--------0--------------------|
-----------------------------------------------|


Finally, repeat the intro to the song twice, with this ending added on the second time

----------0------------------0-------|
------3-------3----------2-------2---|
----4---4---4---2------2---2---2---2-|
-------------------------------------|
-------------------------------------|                M2 #2a
-2-----------------0-----------------|
-------------------------------------|

LAST PART, played slower...

----------------------------------0--------------------|
-------------0-----------------0-----0-----------4h5p4-|
-------2-----------2--------2-----------2--------4-----|
-----0----------0--------2-----------------2-----4-----|
----------------------0--------------------------2-----|
--3-------3--------------------------------------------|
Comments