Chrono Cross - End Theme Chords & Tabs

 

End Theme Chords & Tabs

Chrono Cross Chords & Tabs

Version: 1 Type: Tab 0 ratings
1 star 2 stars 3 stars 4 stars 5 stars
comments

End Theme Tab

End Theme
Chrono Cross
By: Yasunori Mituda

I could swear that there are two guitars playing this song, but I'm not
sure.  Maybe the guitarist is just extremely good at playing two voices
at different volumes.  In any case, here you go!  I recommend listening
to this song as you learn it since some notes should be played far
softer than others.

Please e-mail me at mglin@fas.harvard.edu with comments!  This is my
first tab and I'm not a guitar player, so I would love for someone to
point out easier fingerings and how to make some of the weird sliding
noises in the song.

Max L.

I

E---------------- | ---------------- | ------2--------- | ------2--------- |
B----------0----- | ----------0----- | ----------3---0- | --2-------2----- |
G------2-------2- | ------2-------2- | ---------------- | ------------2--- |
D----0-------0--- | ----2-------2--- | ----4-------4--- | ----4---------4- |
A---------------- | 0-------0------- | 2-------2------- | 0-------0------- |
E3-------3------- | ---------------- | ---------------- | ---------------- |

 ---------------- | ---------------- | --------0------- | ---------------- |
 ----------0----- | ----------0----- | ------0---0----- | 0--------------- |
 ------2-------2- | ------2-------2- | ----2-------2--- | 1--------------- |
 ----0-------0--- | ----2-------2--- | --2-----------2- | ---------------- |
 ---------------- | 0-------0------- | ---------------- | ---------------- |
 3-------3------- | ---------------- | 0--------------- | 0--------------- |

 ---------------- | ---------------- | ------2---2----- | ------2--------- |
 ----------0----- | ----------0----- | ------0---3---0- | --2-------2----- |
 ------2-------2- | ------2-------2- | ---------------- | ------------2--- |
 ----0-------0--- | ----2-------2--- | ----4-------4--- | ----4---------4- |
 ---------------- | 0-----0--------- | 2-------2------- | 0-------0------- |
 3-------3------- | ---------------- | ---------------- | ---------------- |

 ---------------- | ---------------- | ----------0----- | ---------------- |
 ----------0----- | ----------0----- | ---------------- | 4--------------- |
 ------2-------2- | ------2-------2- | ------4-----4--- | ---------------- |
 ----0-------0--- | ----2-------2--- | ----4---------4- | ---------------- |
 ---------------- | 0-------0------- | 2--------------- | 2--------------- |
 3-------3------- | ---------------- | ---------------- | ---------------- |

II

 ---------------- | ----------0----- | ------2--------- | ------2--------- |
 ----------0----- | ------------0--- | ----------3---0- | --2-------2----- |
 ------2-------2- | ------2-------2- | ---------------- | ------------2--- |
 ----0-------0--- | ----2-------2--- | ----4-------4--- | ----4---------4- |
 ---------------- | 0-------0------- | 2-------2------- | 0-------0------- |
 3-------3------- | ---------------- | ---------------- | ---------------- |

 ---------------- | ---------------- | ---------------- | ---------------- |
 ----------0----- | ----------0----- | ----------0----- | ------0---2----- |
 ------2-------2- | ------2-------2- | ------0-----0--- | --0-----------3- |
 ----0-------0--- | ----2-------2--- | ----2---------2- | ----4-------2--- |
 ---------------- | 0-------0------- | --2------------- | ---------------- |
 3-------3------- | ---------------- | 0--------------- | 2-------2------- |

 ---------------- | ---------------- | ------2--------- | ------2--------- |
 ----------0----- | ----------0----- | ----------3---0- | --2-------2----- |
 ------2-------2- | ------2-------2- | ---------------- | ------------2--- |
 ----0-------0--- | ----2-------2--- | ----4-------4--- | ----4---------4- |
 ---------------- | 0-------0------- | 2-------2------- | 0-------0------- |
 3-------3------- | ---------------- | ---------------- | ---------------- |

 ---------------- | ---------------- | ------2--------- | ------2--------- |
 ----------0----- | ----------0----- | ----0h2---2-0--- | ----------2----- |
 ------2-------2- | ------2-------2- | --------------3- | ----3-------3--- |
 ----0-------0--- | ----2-------2--- | --2---------2--- | --4-----------4- |
 ---------------- | 0-------0------- | ---------------- | ---------------- |
 3-------3------- | ---------------- | 2-------2------- | 2-------2------- |

III

 ---------------- | ---------------- | ------2--------- | ------2--------- |
 ----------0----- | ----------0----- | ----------3---0- | --2-------2----- |
 ------2-------2- | ------2-------2- | ---------------- | ------------2--- |
 ----0-------0--- | ----2-------2--- | ----4-------4--- | ----4---------4- |
 ---------------- | 0-------0------- | 2-------2------- | 0-------0------- |
 3-------3------- | ---------------- | ---------------- | ---------------- |

 ---------------- | ---------------- | ----------0----- | ---------------- |
 ----------0----- | ----------0----- | ----------0----- | --2-------2----- |
 ------2-------2- | ------2-------2- | ------0-------2- | ------4-------3- |
 ----0-------0--- | ----2-------2--- | ----2-------0--- | ----2-------2--- |
 ---------------- | 0-------0------- | ---------------- | ---------------- |
 3-------3------- | ---------------- | 0--------------- | 2-------2------- |

 ---------------- | ---------------- | ------2--------- | ------2--------- |
 ----------0----- | --0-------0----- | ----------3---0- | --2-------2----- |
 ------2-------2- | ------2-------2- | ---------------- | ------------2--- |
 ----0-------0--- | ----2-------2--- | ----4-------4--- | ----4---------4- |
 ---------------- | 0-------0------- | 2-------2------- | 0-------0------- |
 3-------3------- | ---------------- | ---------------- | ---------------- |

 ---------------- | ---------------- | ---------------- | ------2--------- |
 ----------0----- | ----------0----- | ------0---2---0- | ----------2----- |
 ------2-------2- | ------2-------2- | ---------------- | ----3-------3--- |
 ----0-------0--- | ----2-------2--- | ----2-------2--- | --4-4---------4- |
 ---------------- | 0-------0------- | ---------------- | ---------------- |
 3-------3------- | ---------------- | 2-------2------- | 2-------2------- |
 
IV

 ---------------- | ---------------- | ---------------- | ---------------- |
 ----------0----- | ----------0----- | ----------0----- | --2---0---2----- |
 ------2-------2- | ------2-------2- | ------2-------2- | --------------2- |
 ----0-------0--- | ----2-------2--- | ----2-------2--- | ----4-------4--- |
 ---------------- | 0-------0------- | ---------------- | 2-------0------- |
 3-------3------- | ---------------- | 2-------2------- | ---------------- |

 ---------------- | ---------------- | ----------0----- | 0---------0----- |
 ----------0----- | ----------0----- | ------3-------3- | ----3-2-----2--- |
 ------2-------2- | ------2-------2- | ----2-------2--- | --2---2--------- |
 ----0-------0--- | ----2-------2--- | ---------------- | ---------------- |
 ---------------- | 0-------0------- | 2--------------- | --------0------- |
 3-------3------- | ---------------- | ---------------- | ---------------- |

 ---------------- | ---------------- | ---------------- | ---------------- |
 ----------0----- | ----------0----- | ----------0----- | --3-------2----- |
 ------2-------2- | ------2-------2- | ------2-------2- | ------2-------2- |
 ----0-------0--- | ----2-------2--- | ----2-------2--- | ----4-------4--- |
 ---------------- | 0-------0------- | --0------------- | 2-------0------- |
 3-------3------- | ---------------- | 2-------2------- | ---------------- |

 ---------------- | --------------0- | 5--------------- | ---------------- |
 ----------0----- | ---------------- | ---------------- | ---------------- |
 ------2-------2- | ------2-----6--- | ---------------- | ---------------- |
 ----0-------0--- | ----2-----7----- | ---------------- | ---------------- |
 ---------------- | 0--------------- | ---------------- | ---------------- |
 3-------3------- | ---------------- | ---------------- | ---------------- |

V

 ---------------- | ---------------- | ------2--------- | ------2--------- |
 ----------0----- | ----------0----- | ----------3---0- | --2-------2----- |
 ------2-------2- | ------2-------2- | ---------------- | ------------2--- |
 ----0-------0--- | ----2-------2--- | ----4-------4--- | ----4---------4- |
 ---------------- | 0-------0------- | 2-------2------- | 0-------0------- |
 3-------3------- | ---------------- | ---------------- | ---------------- |

 ---------------- | ---------------- | --------0------- | ---------------- |
 ----------0----- | ----------0----- | ------0---0----- | 0--------------- |
 ------2-------2- | ------2-------2- | ----2-------2--- | 1--------------- |
 ----0-------0--- | ----2-------2--- | --2-----------2- | ---------------- |
 ---------------- | 0-------0------- | ---------------- | ---------------- |
 3-------3------- | ---------------- | 0--------------- | 0-------0---2--- |

 ---------------- | ---------------- | ------2--------- | ------2--------- |
 ----------0----- | ----------0----- | ----------3---0- | --2-------2----- |
 ------2-------2- | ------2-------2- | ---------------- | ------------2--- |
 ----0-------0--- | ----2-------2--- | ----4-------4--- | ----4---------4- |
 ---------------- | 0-------0------- | 2-------2------- | 0-------0------- |
 3-------3------- | ---------------- | ---------------- | ---------------- |
[ Tab from: http://www.guitartabs.cc/tabs/c/chrono_cross/end_theme_tab.html ]
 ---------------- | ---------------- | --------0-----0- | ---------------- |
 ----------0----- | ----------0----- | ------0-----0--- | 4--------------- |
 ------2-------2- | ------2-------2- | ---------------- | ---------------- |
 ----0-------0--- | ----2-------2--- | ----4-----4----- | 4--------------- |
 ---------------- | 0-------0------- | 2--------------- | 2--------------- |
 3-------3------- | ---------------- | ---------------- | ---------------- |

VI

 ---------------- | ---------------- | ------2--------- | ------2--------- |
 ----------0----- | ----------0----- | ------0---3---0- | --2-------2----- |
 ------2-------2- | ------2-------2- | ---------------- | ------------2--- |
 ----0-------0--- | ----2-------2--- | ----4-------4--- | ----4---------4- |
 ---------------- | 0-------0------- | 2-------2------- | 0-------0------- |
 3-------3------- | ---------------- | ---------------- | ---------------- |

 ---------------- | ---------------- | ---------------- | ----------2----- |
 ----------0----- | ----------0----- | ----------0----- | --2---0---2----- |
 ------2-------2- | ------2-------2- | ------0-------0- | --------------3- |
 ----0-------0--- | ----2-------2--- | ----2-------2--- | ----2-------2--- |
 ---------------- | 0-------0------- | ---------------- | ---------------- |
 3-------3------- | ---------------- | 0--------------- | 2-------2------- |

 ---------------- | ---------------- | ------2--------- | ------2--------- |
 ----------0----- | ----------0----- | ----------3---0- | --2-------2----- |
 ------2-------2- | ------2-------2- | ---------------- | ------------2--- |
 ----0-------0--- | ----2-------2--- | ----4-------4--- | ----4-------4--- |
 ---------------- | 0-------0------- | 2-------2------- | 0-------0------- |
 3-------3------- | ---------------- | ---------------- | ---------------- |

 ---------------- | ---------------- | --------2------- | --------2------- |
 ----------0----- | ----------0----- | ----0h2---2p0h2- | ------2---2----- |
 ------2-------2- | ------2-------2- | ---------------- | ----3-3-----3--- |
 ----0-------0--- | ----2-------2--- | --2---------2--- | --4-----------4- |
 ---------------- | 0-------0------- | ---------------- | ---------------- |
 3-------3------- | ---------------- | 2-------2------- | 2--------------- |

VII

 ---------------- | ---------------- | ---------------- | ---------------- |
 ----------0----- | ----------0----- | ----------0----- | --3---0---2----- |
 ------2-------2- | ------2-------2- | ------2--------- | --------------2- |
 ----0-------0--- | ----2-------2--- | ----2---------2- | ----4-------4--- |
 ---------------- | 0-------0------- | ------------2--- | 2-------0------- |
 3-------3------- | ---------------- | 2-------2------- | ---------------- |

 ---------------- | ---------------- | --------0------- | --------0------- |
 ----------0----- | ----------0----- | ----3-0---0-3--- | ----2-2-2-0-2--- |
 ------2-------2- | ------2-------2- | --2-----------2- | --2-2-2--------- |
 ----0-------0--- | ----2-------2--- | ---------------- | ---------------- |
 ---------------- | 0-------0------- | 2--------------- | 0--------------- |
 3-------3------- | ---------------- | ---------------- | ---------------- |

 ---------------- | ---------------- | ---------------- | ---------------- |
 ----------0----- | ----------0----- | ----------0----- | --3-------2----- |
 ------2-------2- | ------2-------2- | ------2-------2- | ------2-------2- |
 ----0-------0--- | ----2-------2--- | ----2-------2--- | ----4-------4--- |
 ---------------- | 0-------0------- | ---------------- | 2-------0------- |
 3-------3------- | ---------------- | 2-------2------- | ---------------- |

 ---------------- | ---------------- | --------0------- | ---------------- |
 ----------0----- | ----------0----- | ------0---0----- | 0--------------- |
 ------2-------2- | ------2-------2- | ----2-------2--- | 1--------------- |
 ----0-------0--- | ----2-------2--- | --2-----------2- | ---------------- |
 ---------------- | 0-------0------- | ---------------- | ---------------- |
 3-------3------- | ---------------- | 0--------------- | 0--------------- |

VIII

 ------2-2------- | ------2--------- | ------2--------- | ---------------- |
 ----0-3---3----- | ----------3----- | ----3-----3----- | ------3---2----- |
 ------------4--- | ----0-------0--- | --2---------2--- | ----2-------2--- |
 --4-----------4- | --4-----------4- | 0-------0-----0- | --2-----------2- |
 2--------------- | ---------------- | ---------------- | 0-------0------- |
 ---------------- | 3-------3------- | ---------------- | ---------------- |

 ------2--------- | ------2--------- | ----------0----- | ----------0----- |
 ----0-----3----- | ----------3----- | ----3-0-------3- | --0h2---------2- |
 ------------4--- | ----0-------0--- | --2---------2--- | ------2-----2--- |
 --4-----------4- | --4-----------4- | ---------------- | ---------------- |
 2--------------- | ---------------- | 0-------0------- | 0-------0------- |
 ---------------- | 3-------3------- | ---------------- | ---------------- |

 ------2--------- | ------2--------- | ------2--------- | ---------------- |
 ----0-----3----- | ----------3----- | ----3-----3----- | ------3---2----- |
 ------------4--- | ----0-------0--- | --2---------2--- | ----2-------2--- |
 --4-----------4- | --4-----------4- | 0-------0-----0- | --2-----------2- |
 2--------------- | ---------------- | ---------------- | 0-------0------- |
 ---------------- | 3-------3------- | ---------------- | ---------------- |

 ------2--------- | ------2--------- | ----------0----- | --------0------- |
 ----0-----3----- | ----------3----- | ----3-0-------3- | --0h2-------2--- |
 ------------4--- | ----0-------0--- | --2---------2--- | ------2---2---2- |
 --4-----------4- | --4-----------4- | ---------------- | ---------------- |
 2-------2------- | ---------------- | 0-------0------- | 0-------0------- |
 ---------------- | 3-------3------- | ---------------- | ---------------- |

IX

 ------2--------- | ------2--------- | ------2---2----- | ---------------- |
 ----0-----3----- | ----------3----- | ----3-3---3-3--- | ------3---2----- |
 ------------4--- | ----0-------0--- | --2-----------2- | ----2-------2--- |
 --4-----------4- | --4-----------4- | 0-------0------- | --2-----------2- |
 2--------------- | ---------------- | ---------------- | 0-------0------- |
 ---------------- | 3-------3------- | ---------------- | ---------------- |

 ------2--------- | ------2--------- | --------0-0----- | ------0--------- |
 ----0-----3----- | ----------3----- | ----3-------3s2- | --2---2---0h2--- |
 ------------4--- | ----0-------0--- | --2---4---4p2--- | --2-2-----2----- |
 --4-----------4- | --4-----------4- | ---------------- | ---------------- |
 2-------2------- | ---------------- | 0--------------- | 0-------0------- |
 ---------------- | 3-------3------- | ---------------- | ---------------- |

 ------2--------- | ------2--------- | ------2---2----- | ---------------- |
 ----0-----3----- | ----------3----- | ----3-----3----- | ------3---2----- |
 ------------4--- | ----0-------0--- | --2---------2--- | ----2-------2--- |
 --4-----------4- | --4-----------4- | 0-------0-----0- | --2-----------2- |
 2--------------- | ---------------- | ---------------- | 0-------0------- |
 ---------------- | 3-------3------- | ---------------- | ---------------- |

 ------2--------- | ------2--------- | ----------0----- | ------0--------- |
 ----0-----3----- | ----------3----- | ----3-0-----0h3- | --0h2-----0h2--- |
 ------------4--- | ----0-------0--- | --2------------- | ---------------- |
 --4-----------4- | --4-----------4- | ---------------- | ---------------- |
 2--------------- | ---------------- | 0-------0------- | 0-------0------- |
 ---------------- | 3-------3------- | ---------------- | ---------------- |

X

 ---------------- | ---------------- | ------2--------- | ------2--------- |
 ----------0----- | ----------0----- | ----------3---0- | --2-------2----- |
 ------2-------2- | ------2-------2- | ---------------- | ------------2--- |
 ----0-------0--- | ----2-------2--- | ----4-------4--- | ----4---------4- |
 ---------------- | 0-------0------- | 2-------2------- | 0-------0------- |
 3-------3------- | ---------------- | ---------------- | ---------------- |

 ---------------- | ---------------- | --------0h2----- | 0h2-----0h2----- |
 ----------0----- | ----------0----- | ----3-3-----3--- | --2-3-----2-3--- |
 ------2-------2- | ------2-------2- | --2---4-------4- | ------4-------4- |
 ----0-------0--- | ----2-------2--- | ---------------- | ---------------- |
 ---------------- | 0-------0------- | 2--------------- | ---------------- |
 3-------3------- | ---------------- | ---------------- | ---------------- |

 ---------------- | ---------------- | ------2--------- | ------2--------- |
 ----------0----- | ----------0----- | ----------3---0- | --2-------2----- |
 ------2-------2- | ------2-------2- | ---------------- | ------------2--- |
 ----0-------0--- | ----2-------2--- | ----4-------4--- | ----4---------4- |
 ---------------- | 0-----0--------- | 2-------2------- | 0-------0------- |
 3-------3------- | ---------------- | ---------------- | ---------------- |

 ---------------- | --------2------- | ---------------- | ---------------- |
 ----------0----- | ------2---2----- | 5-4------------- | ---------------- |
 ------2-------2- | ----2-------2--- | 4--------------- | ---------------- |
 ----0-------0--- | --2-----------2- | 4--------------- | ---------------- |
 ---------------- | 0--------------- | 2--------------- | ---------------- |
 3-----------3--- | ---------------- | ---------------- | ---------------- |
Comments