Chrono Cross - Dream Of The Shore Near Another World Chords & Tabs

 

Dream Of The Shore Near Another World Chords & Tabs

Chrono Cross Chords & Tabs

Version: 1 Type: Tab 0 ratings
1 star 2 stars 3 stars 4 stars 5 stars
comments

Dream Of The Shore Near Another World Tab

   
Album: Chrono Cross OST
Song: Dream of the Shore Near Another World
Composed and arranged by: Yasunori Mitsuda
Tabbed by: Kaka (berdel@spray.se)
http://www.dolda2000.com/~kaka/ketabs.html

h - hammer on
p - pull off
\ - slide down
* - mute

Guitar:

Part A:

E) |------1-----0-h1------1---0-h1--|------1-----0-h1------0---------|
B) |--------------------------------|----------------------------3---|
G) |----2-----2---------2---2-------|--------------------------------|
D) |0---------------0---------------|----3-----3---------3-----3-----|
A) |--------------------------------|1---------------1---------------|
E) |--------------------------------|--------------------------------|
    1 2 3 4 1 2 3 4 1 2 3 4 1 2 3 4  1 2 3 4 1 2 3 4 1 2 3 4 1 2 3 4

E) |------5-----3-h5------6-----5---|------3-----1-h5------1-----0---|
B) |--------------------------------|--------------------------------|
G) |----5-----5---------5-----5-----|----0-----0---------0-----0-----|
D) |3---------------3---------------|--------------------------------|
A) |--------------------------------|3---------------3---------------|
E) |--------------------------------|--------------------------------|
    1 2 3 4 1 2 3 4 1 2 3 4 1 2 3 4  1 2 3 4 1 2 3 4 1 2 3 4 1 2 3 4

Part B:

E) |--------------------------------|--------------------------------|
B) |------3-----1-h3------3-----1-h3|------1-----0-h1------1-----0-h1|
G) |--------------------------------|--------------------------------|
D) |----3-----3---------3-----3-----|----2-----2---------2-----2-----|
A) |1---------------1---------------|0---------------0---------------|
E) |--------------------------------|--------------------------------|
    1 2 3 4 1 2 3 4 1 2 3 4 1 2 3 4  1 2 3 4 1 2 3 4 1 2 3 4 1 2 3 4

E) |------0---------------0---------|------0---------------0---------|
B) |------------1-h3------------1-h3|------------1-h3------------1-h3|
G) |----2-----2---------2-----2-----|----2-----2---------2-----2-----|
D) |0---------------0---------------|0---------------0---------------|
A) |--------------------------------|--------------------------------|
E) |--------------------------------|--------------------------------|
    1 2 3 4 1 2 3 4 1 2 3 4 1 2 3 4  1 2 3 4 1 2 3 4 1 2 3 4 1 2 3 4

E) |--------------------------------|--------------------------------|
B) |------3-----1-h3------3-----1-h3|------1-----0-h1------1-----0-h1|
G) |--------------------------------|--------------------------------|
D) |----3-----3---------3-----3-----|----2-----2---------2-----2-----|
A) |1---------------1---------------|0---------------0---------------|
E) |--------------------------------|--------------------------------|
    1 2 3 4 1 2 3 4 1 2 3 4 1 2 3 4  1 2 3 4 1 2 3 4 1 2 3 4 1 2 3 4

E) |--------------------------------|--------------------------------|
B) |--------------------------------|------2-----0-h23---5---6---5---|
G) |------4-----2-h4------4-----2-h4|--------------------------------|
D) |----0-----0---------0-----0-----|----2-----2---------------------|
A) |--------------------------------|0-------------------------------|
E) |3---------------3---------------|--------------------------------|
    1 2 3 4 1 2 3 4 1 2 3 4 1 2 3 4  1 2 3 4 1 2 3 4 1 2 3 4 1 2 3 4

E) |5-------------------------------|
B) |--------------------------------|
G) |--------------------------------|
D) |--------------------------------|
A) |--------------------------------|
E) |--------------------------------|
    1 2 3 4 1 2 3 4 1 2 3 4 1 2 3 4


Bass:

Part A: Play the guitar part A four times during this

G) |--------------------------------|--------------------------------|
D) |--------------------------------|--------------------------------|
A) |5---------------------------5---|1---------------------------1---|
E) |--------------------------------|--------------------------------|
    1 2 3 4 1 2 3 4 1 2 3 4 1 2 3 4  1 2 3 4 1 2 3 4 1 2 3 4 1 2 3 4
[ Tab from: http://www.guitartabs.cc/tabs/c/chrono_cross/dream_of_the_shore_near_another_world_tab.html ]
G) |--------------------------------|--------------------------------|
D) |--------------------------------|--------------------------------|
A) |--------------------------------|3---------------3---------------|
E) |1---------------------------1---|------------------------3-------|
    1 2 3 4 1 2 3 4 1 2 3 4 1 2 3 4  1 2 3 4 1 2 3 4 1 2 3 4 1 2 3 4

G) |--------------------------------|--------------------------------|
D) |--------------------------------|--------------------3-------3---|
A) |5---------------------------3-h5|\1--------------1-------1-------|
E) |--------------------------------|--------------------------------|
    1 2 3 4 1 2 3 4 1 2 3 4 1 2 3 4  1 2 3 4 1 2 3 4 1 2 3 4 1 2 3 4

G) |--------------------------------|--------------------------------|
D) |------------------------3-h5p3--|--------------------------------|
A) |----------------------3---------|3-----------------------3-h5p3--|
E) |1-------------------------------|----------------------3---------|
    1 2 3 4 1 2 3 4 1 2 3 4 1 2 3 4  1 2 3 4 1 2 3 4 1 2 3 4 1 2 3 4

G) |--------------------------------|--------------------------------|
D) |--------------------------------|----------------------------3---|
A) |5---------------------------3-h5|\1----------------------------1-|
E) |--------------------------------|--------------------------------|
    1 2 3 4 1 2 3 4 1 2 3 4 1 2 3 4  1 2 3 4 1 2 3 4 1 2 3 4 1 2 3 4

G) |--------------------------------|--------------------------------|
D) |------------------------3-h5p3--|--------------------------------|
A) |----------------------3---------|3-----------------------3-h5p3--|
E) |1-------------------------------|----------------------3---------|
    1 2 3 4 1 2 3 4 1 2 3 4 1 2 3 4  1 2 3 4 1 2 3 4 1 2 3 4 1 2 3 4

G) |--------------------------------|--------------------------------|
D) |--------------------------------|--------------------------------|
A) |5---------------------------3-h5|\1--------------------------1-3-|
E) |--------------------------------|--------------------------1-----|
    1 2 3 4 1 2 3 4 1 2 3 4 1 2 3 4  1 2 3 4 1 2 3 4 1 2 3 4 1 2 3 4

G) |--------------------------------|--------------------------------|
D) |3---------------------------3---|--------------------------------|
A) |----------------------3---------|3-------------------------3---3-|
E) |--------------------------------|----------------------------3---|
    1 2 3 4 1 2 3 4 1 2 3 4 1 2 3 4  1 2 3 4 1 2 3 4 1 2 3 4 1 2 3 4

Part B:

G) |--------------------------------|--------------------------------|
D) |--------------------------------|------------2-------------------|
A) |1---------------------------0-h1|p0----------------------0-------|
E) |--------------------------------|--------------------------------|
    1 2 3 4 1 2 3 4 1 2 3 4 1 2 3 4  1 2 3 4 1 2 3 4 1 2 3 4 1 2 3 4

G) |------------2-------------------|7---5---------------------------|
D) |0-----------------------0-------|------7-*-5-7-----------0-------|
A) |--------------------------------|--------------------------------|
E) |--------------------------------|--------------------------------|
    1 2 3 4 1 2 3 4 1 2 3 4 1 2 3 4  1 2 3 4 1 2 3 4 1 2 3 4 1 2 3 4

G) |--------------------------------|--------------------------------|
D) |------------3-------------------|------------2-------------------|
A) |1-----------------------1-------|0-----------------------0-------|
E) |--------------------------------|--------------------------------|
    1 2 3 4 1 2 3 4 1 2 3 4 1 2 3 4  1 2 3 4 1 2 3 4 1 2 3 4 1 2 3 4

G) |--------------------------------|------------------------0-h2p0--|
D) |0-------------------------------|2---------------------0---------|
A) |------------------------5-------|--------------------------------|
E) |--------------------3-------3---|--------------------------------|
    1 2 3 4 1 2 3 4 1 2 3 4 1 2 3 4  1 2 3 4 1 2 3 4 1 2 3 4 1 2 3 4

G) |2-----------0-------------------|
D) |------------------------2-------|
A) |--------------------------------|
E) |--------------------------------|
    1 2 3 4 1 2 3 4 1 2 3 4 1 2 3 4


Enjoy!
Comments