Chronic Future - Say Goodbye Chords & Tabs

 

Say Goodbye Chords & Tabs

Chronic Future Chords & Tabs

Version: 1 Type: Tab 0 ratings
1 star 2 stars 3 stars 4 stars 5 stars
comments

Say Goodbye Tab

Band: Chronic Future
Song: Say Goodbye

I'm pretty sure this is 99.9% correct I played this with the song it sounded to me that
it was it, so enjoy! 
[ Tab from: http://www.guitartabs.cc/tabs/c/chronic_future/say_goodbye_tab.html ]
e|----------------------------------------------------|
B|----------------------------------------------------|
G|------10----------------------------8---------------|
D|---11------11---11------11--------9-----9---9-------|
A|---------11---11---11------11---------9---9---9-----|
E|-9--------------------9---------7-------------------|

e|----------------------------------------------------|
B|----------------------------------------------------|
G|------10----------------10----------8---------------|
D|---11------11---11-----11-11------9-----9---9-------|
A|---------11---11---11-11---11---------9---9---9-----|
E|-9------------------------------7-------------------|

If you think there are any mistakes;e-mail me at ChrisGB024@aol.com
Comments