Christmas Music - Silent Night Chords & Tabs

 

Silent Night Chords & Tabs

Christmas Music Chords & Tabs

Version: 1 Type: Tab 16 ratings
1 star 2 stars 3 stars 4 stars 5 stars
comments

Silent Night Tab

e------0-------------0-----------5--5--2--3--3-------0--0--3--2--0----
b---3-----3--0----3-----3--0--------------------3-------------------3-
g---------------------------------------------------------------------
d---------------------------------------------------------------------
a---------------------------------------------------------------------
E---------------------------------------------------------------------
[ Tab from: http://www.guitartabs.cc/tabs/c/christmas_music/silent_night_tab.html ]
e--0----------0--0--3--2--0-----0----------5--5--8--5--2--3--7--------
b-----3--0-------------------3-----3--0-------------------------------
g---------------------------------------------------------------------
d---------------------------------------------------------------------
a---------------------------------------------------------------------
E---------------------------------------------------------------------

e--3------------------------------------------------------------------
b-----3--0--3--1------------------------------------------------------
g-----------------2--0------------------------------------------------
d---------------------------------------------------------------------
a---------------------------------------------------------------------
E---------------------------------------------------------------------

This is good and exact
Comments