Christina Vidal - Take Me Away Chords & Tabs

 

Take Me Away Chords & Tabs

Christina Vidal Chords & Tabs

Version: 7 Type: Tab 0 ratings
1 star 2 stars 3 stars 4 stars 5 stars
comments

Take Me Away Tab

   
Freaky Friday

Tuning: Standard (E A D G B E)


Intro
E|--------------------------------------------------------||
B|--------------------------------------------------------||
G|--------------------------------------------------------||
D|-44xxxxxx-44xxxxxx-44xx-44xx-44444444-------------------||
A|-44xxxxxx-44xxxxxx-44xx-44xx-44444444-------------------||
E|-22xxxxxx-22xxxxxx-22xx-22xx-22222222-------------------||


E|---------------------------------------||
B|---------------------------------------||
G|---------------------------------------||
D|-------------xxx-----------------------||  x2
A|-----0-1-2-2-xxx-3-2-0-2-2-0-0---------||
E|-2-2---------xxx-----------------------||

(Bass Riff)

E|------------------||
B|------------------||
G|------------------||
D|------------------||
A|-0-----0-1-2-2----||
E|---2-2------------||

(More Bass)

E|------------------||
B|------------------||
G|------------------||
D|------------------||
A|-3-2-0-2-2-0-0----||
E|------------------||


E|--------------------------------------------------------||
B|--------------------------------------------------------||
G|--------------------------------------------------------||
D|-44xxxxxx-44xxxxxx-44xx-44xx-44444444-------------------||
A|-44xxxxxx-44xxxxxx-44xx-44xx-44444444-------------------||
E|-22xxxxxx-22xxxxxx-22xx-22xx-22222222-------------------||


E|--------------------------------------------------------||
B|--------------------------------------------------------||
G|-77777777-1111111111111111------------------------------||
D|-77777777-1111111111111111-99999999-77777777------------||
A|-55555555--9-9-9-9-9-9-9-9-99999999-77777777------------||
E|---------------------------77777777-55555555------------||







E|--------------------------------------------------|------||
B|--------------------------------------------------|------||
G|-77777777-1111111111111111----------9999-10101010-|-6----||
D|-77777777-1111111111111111-99999999-9999-10101010-|-6-x24||
A|-55555555--9-9-9-9-9-9-9-9-99999999-7777--8-8-8-8-|-4----||
E|---------------------------77777777---------------|------||


E|---------------------------------------||
B|---------------------------------------||
G|---------------------------------------||
D|-------------xxx-----------------------||  x3
A|-----0-1-2-2-xxx-3-2-0-2-2-0-0---------||
E|-2-2---------xxx-----------------------||


E|------------------||
B|------------------||
G|------------------||
D|------------------||
A|-0----------------||
E|---2-2------------||

(Bass Riff)


E|-------------------------------------||
B|-------------------------------------||
G|-------------------------------------||
D|-44-44-44xx-44xx-44444444------------||
A|-44-44-44xx-44xx-44444444------------||
E|-22-22-22xx-22xx-22222222------------||
[ Tab from: http://www.guitartabs.cc/tabs/c/christina_vidal/take_me_away_tab_ver_7.html ]
E|--------------------------------------------------------||
B|--------------------------------------------------------||
G|-77777777-1111111111111111------------------------------||
D|-77777777-1111111111111111-99999999-77777777------------||
A|-55555555--9-9-9-9-9-9-9-9-99999999-77777777------------||
E|---------------------------77777777-55555555------------||


E|--------------------------------------------------|------||
B|--------------------------------------------------|------||
G|-77777777-1111111111111111----------9999-10101010-|-6----||
D|-77777777-1111111111111111-99999999-9999-10101010-|-6-x24||
A|-55555555--9-9-9-9-9-9-9-9-99999999-7777--8-8-8-8-|-4----||
E|---------------------------77777777---------------|------||


Solo
E|------------------------------------------------------------------------||
B|----------------/2-2-2-------/12-12-12-12-12-10-------------------------||
G|-----------------------4-2----------------------12-11-11-11-11-11-9-----||
D|-4-4-4bp2-0-4-4------------4----------------------------------------12--||
A|------------------------------------------------------------------------||
E|------------------------------------------------------------------------||






E|------/14-14-14-14-14-12----------------------------/14-----------------||
B|--/10--------------------15-14-14-14-14-14-12-----------15p12-12h15-----||
G|----------------------------------------------14-11---------------------||
D|------------------------------------------------------------------------||
A|------------------------------------------------------------------------||
E|------------------------------------------------------------------------||


E|-12-12-12-12-12-12-12-12-13-13-13-13-13-13-13-13------------------------||
B|-----------------------------------------------------14-------14----14--||
G|--------------------------------------------------13----13-13----13-----||
D|------------------------------------------------------------------------||
A|------------------------------------------------------------------------||
E|------------------------------------------------------------------------||


E|-----------------------99999999-1313131313131313-14~let-ring------------||
B|------------------------------------------------------------------------||
G|-11-10-11-13-11-10------------------------------------------------------||
D|-------------------11---------------------------------------------------||
A|------------------------------------------------------------------------||
E|------------------------------------------------------------------------||

E|--------------------------------------------------------||
B|--------------------------------------------------------||
G|-77777777-1111111111111111------------------------------||
D|-77777777-1111111111111111-99999999-77777777------------||
A|-55555555--9-9-9-9-9-9-9-9-99999999-77777777------------||
E|---------------------------77777777-55555555------------||


E|--------------------------------------------------|------||
B|--------------------------------------------------|------||
G|-77777777-1111111111111111----------9999-10101010-|-6----||
D|-77777777-1111111111111111-99999999-9999-10101010-|-6-x24||
A|-55555555--9-9-9-9-9-9-9-9-99999999-7777--8-8-8-8-|-4----||
E|---------------------------77777777---------------|------||


E|------------------||
B|------------------||
G|-4~let-ring-------||
D|------------------||
A|------------------||
E|------------------||
Comments