Christina Perri - A Thousand Years Chords & Tabs

 

Christina Perri Chords & Tabs

Version: 2 Type: Tab 0 ratings
1 star 2 stars 3 stars 4 stars 5 stars
comments

A Thousand Years Tab

this is my first tab(: tell me how it could be improved!
p.s.: the strumming pattern may not be accurate but it sounds pretty good to me...

capo on 3rd
standard tuning
(begins with piano part)
-
|---------------------------|-------------------------|
|-----1-----1-------1-----1-|-----3-----3-----3-----3-|
|---------------------------|-------------------------|
|-0-----0------0------0-----|-0-----0-----0-----0-----|
|---3-----3------3------3---|---2-----2-----2-----2---|
|-0-----0------0------0-----|-3-----3-----3-----3-----|
heart beats fast.....         promises.....

|------------------------|-------------------------|
|-----1-----1-----3----3-|-----1-----1-----1-----1-|
|------------------------|-------------------------|
|-0-----0-----0-----0----|-0-----0-----0-----0-----|
|---2-----2-----0-----0--|---3-----3-----3-----3---|
|-0-----0-----0-----0----|-0-----0-----0-----0-----|
brave...                  afraid... (play this last riff 3 times)

|-----33-3-333-3333-3-333-3-333-|-3-333-3-333-2-|
|-----33-3-333-3333-3-333-3-333-|-3-000-0-000-3-|
|-----22-2-222-2222-2-222-2-222-|-0-000-0-000-2-|
|-----22-2-222-2222-2-222-2-222-|-0-000-0-000-0-|
|-------------------------------|-2-222-2-222---|
|-------------------------------|-3-333-3-333---|
somehow...                        cloooosssseeer
[ Tab from: http://www.guitartabs.cc/tabs/c/christina_perri/a_thousand_years_tab_ver_2.html ]
Chorus:
|-3-333-3-333---3-333--3-333--0-000--0-000--3-333-2-222-|
|-0-000-0-000---3-333--2-222--1-111--1-111--3-333-3-333-|
|-0-000-0-000---2-222--3-333--0-000--0-000--2-222-2-222-|
|-0-000-0-000---0-000--0-000--0-000--0-000--0-000-0-000-|
|-2-222-2-222-----------------2-222--2-222--------------|
|-3-333-3-333-------------------------------------------|
  i...  every.. waiting for...darling..     I have..
|-0-000--0-000--0-000--0-000-|-3-333-3-333--3-333-2-222-|
|-1-111--1-111--1-111--1-111-|-0-000-0-000--3-333-3-333-|
|-0-000--0-000--0-000--0-000-|-0-000-0-000--2-222-2-222-|
|-0-000--0-000--0-000--0-000-|-0-000-0-000--0-000-0-000-|
|-3-333--3-333--3-333--3-333-|-2-222-2-222--------------|
|----------------------------|-3-333-3-333--------------|
 thousand...                  thousand      more...

verse:
|-0-000-0-000-0-000-0-000-3-333-3-333-3-333-3-333-0-000-0-000-0-000-0-000-|
|-1-111-1-111-1-111-1-111-0-000-0-000-0-000-0-000-1-111-1-111-1-111-1-111-|
|-0-000-0-000-0-000-0-000-0-000-0-000-0-000-0-000-0-000-0-000-0-000-0-000-|
|-0-000-0-000-0-000-0-000-0-000-0-000-0-000-0-000-0-000-0-000-0-000-0-000-|
|-3-333-3-333-3-333-3-333-2-222-2-222-2-222-2-222-2-222-2-222-2-222-2-222-|
|-------------------------3-333-3-333-3-333-3-333-------------------------|
 time..                ...all..                ...brave
|-2-222-3-333-0-000-0-000-0-000-0-000-3-333-3-333-3-333-3-333-|
|-3-333-0-000-1-111-1-111-1-111-1-111-0-000-0-000-0-000-0-000-|
|-2-222-0-000-0-000-0-000-0-000-0-000-0-000-0-000-0-000-0-000-|
|-0-000-0-000-0-000-0-000-0-000-0-000-0-000-0-000-0-000-0-000-|
|-------2-222-3-333-3-333-3-333-3-333-2-222-2-222-2-222-2-222-|
|-------3-333-------------------------3-333-3-333-3-333-3-333-|
..let..       take..                  front..
|-0-000-0-000-2-222-3-333-3-333-3-333-3-333-3-333-3-333-3-333-3--|
|-1-111-1-111-3-333-0-000-3-333-3-333-3-333-3-333-0-000-0-000-2--|
|-0-000-0-000-3-333-0-000-2-222-2-222-2-222-2-222-0-000-0-000-3--|
|-0-000-0-000-0-000-0-000-2-222-2-222-2-222-2-222-0-000-0-000-0--|
|-2-222-2-222-------2-222-------------------------2-222-2-222----|
|-------------------3-333-------------------------3-333-3-333----|
 breath..     hour...     this...                 cloooooossseeer

Just repeat the chorus and verses throughout the song, and the ending is the same riffs 
from the beginning. thank you!
Comments