Christina Millan - Until I Get Over You Chords & Tabs

 

Until I Get Over You Chords & Tabs

Christina Millan Chords & Tabs

Version: 1 Type: Tab 0 ratings
1 star 2 stars 3 stars 4 stars 5 stars
comments

Until I Get Over You Tab

Song:Until I Get Over You
Artist:Christina Milian
Tabbed by:Joery Duco

dedicated to all my friends especially to Rhoanne...
Labs Yah!
[ Tab from: http://www.guitartabs.cc/tabs/c/christina_millan/until_i_get_over_you_tab.html ]
|---------------------------------|
|--7--7--10-10---7h8-7--5--7--5---|
|-7--7--9--9----7h8-6--5--7--5----|
|---------------------------------|
|---------------------------------|
|---------------------------------|

|------------------------|     
|--3--3--7--7------------|
|-3--3--7--7-------------|
|--------------7-7h9-7-9-|
|------------------------|
|------------------------|

for comments, infos, and suggestions about me and my song, just e-mail me at Joery_brinch@yahoo.com
Thanks to all!
Comments