Christina Aguilera - Im Ok Chords & Tabs

 

Im Ok Chords & Tabs

Christina Aguilera Chords & Tabs

Version: 1 Type: Tab 0 ratings
1 star 2 stars 3 stars 4 stars 5 stars
comments

Im Ok Tab

   
This is my first Tab I've done myself so please excuse any mistakes....
if you want to point anything out to me you can email me at ginamarie83@hotmail.com


This is the main idea of the Intro and verse guitar tab (repeat as needed:

e|--------------2---------------------0-------------------0-----------
b|---------30-----30--------30---------3-0-------3-0------3-0------
g|--------------------------------------------------------------------
d|---4-----------------------------4----------------------------------
a|-2--------------------2-0-------------------------------------------
E|---------------------------------------------0-2-----------------0-2


---------0---------------------2-----------------------0--------------
-0-0-------0-0--------3-0-----------3-0--------3-0---------30---------
----------------------------------------------------------------------
------4--------------------4------------------------4-----------------
-----------------0-2----------------------2-0-------------------------
----------------------------------------------------------------0-3---

[ Tab from: http://www.guitartabs.cc/tabs/c/christina_aguilera/im_ok_tab.html ]
---------2--------------------0------------|
----3-0-----3-0-------0-0--------0-0-------|
-------------------------------------------|
-4-------------------------4---------------|
-------------------------------------0-2---|
-----------------0-2-----------------------|

Chorus Chords:

Dm                           Gmaj7
Bruises fade farther but the pain remains the same

Bm/A                         F#7sus
But i still remember how you kept me so afraid

Dm                           Gmaj7
Strength is my mother for all the love she gave

Gmaj7
and every morning that I wake

Bm/A
I look Back and yesterday

and I'm Ok

Chords:
Dm:
x x o
| | | | | O
| | | | O |
| | | | | 0
| | | | | |
| | | | | |

Gmaj7:
    o o o
| | | | | |
| O | | | O
O | | | | |
| | | | | |
| | | | | |

F#7sus:

| | | | | |
O | O | O O
| | | | | |
| O | O | |
| | | | | |

Bm/A:
x o
| | | | | |
| | | | | O
| | | | O |
| | O O | |
| | | | | |

The End :-) hope you enjoyed it
Comments