Christina Aguilera - Hello Chords & Tabs

 

Hello Chords & Tabs

Christina Aguilera Chords & Tabs

Version: 1 Type: Bass Tab 0 ratings
1 star 2 stars 3 stars 4 stars 5 stars
comments

Hello Bass Tab

INTRO
G|----------------------||
D|----------------------||
A|--333333333-----------|| 
E|----------------------||

VERSE
G|---------------------------||
D|---------------------------||
A|--33330-11110-------11110--|| 2x
E|--------------44440--------||

PRE-CHORUS
G|------------------------------------------------||
D|--11-33------11-33------11-33-------------------||
A|--------3333-------3333-------33-11------1111---|| 
E|------------------------------------4444--------||
[ Tab from: http://www.guitartabs.cc/tabs/c/christina_aguilera/hello_btab.html ]
CHORUS
G|--------------------||
D|--------11-23-32----||
A|--33-11-------------|| 3x
E|--------------------||

G|-----------------||
D|-----------------||
A|--33-11-3333-----|| 2x
E|-----------------||
 
INTRO
VERSE
CHORUS

BRIDGE
G|------------------------------------------------------------||
D|--3--1--0-----------------3--1--0---------------------------||
A|------------3333-------------------3333------1-11111111-----||
E|----------------3333-------------------3333-----------------||

CHORUS repeat many times, til fade out
Comments