Christina Aguilera - Fighter Chords & Tabs

 

Fighter Chords & Tabs

Christina Aguilera Chords & Tabs

Version: 1 Type: Tab 0 ratings
1 star 2 stars 3 stars 4 stars 5 stars
comments

Fighter Tab

I don't think anyone has tabbed it yet so I thought i'd give it a go. Enjoy


------------------------------------------------------------------------
------------------------------------------------------------------------
--------------------------------------4---------------------------------
--------------------------------------4---------------------------------   x2
--7----5----3----2--------------then--2---------------------------------
----------------------5----7--------------------------------------------

Lead
[ Tab from: http://www.guitartabs.cc/tabs/c/christina_aguilera/fighter_tab.html ]
----7h8p7-------2h3p3--------------------------------------------------
-----------------------------------------------------------------------
------------------------4h5p4------------------------------------------
-----------------------------------------------------------------------
-----------------------------------------------------------------------
-----------------------------------------------------------------------


Chorus

-----------------------------------------------------------------------
-----------------------------------------------------------------------
-----------------------------------------------------------------------
-2----4----5----7---10----9--------------------------------------------
-2----4----5----7---10----9--------------------------------------------
-0----2----3----5----8----7--------------------------------------------
Comments