Chris Rubeo - Lights Chords & Tabs

 

Lights Chords & Tabs

Chris Rubeo Chords & Tabs

Version: 1 Type: Chords 0 ratings
1 star 2 stars 3 stars 4 stars 5 stars
comments

Lights Chords

   
Lights
by Chris Rubeo

So, and now, untied to catch the eyes of strangers walking past me
Beacons on the way away
Im glad tove come but cannot stay
And some nights Im so young
I remember where Im coming from
As the miles are slipping away

(hey, hey)

Dont go that way
Or youre gonna go this alone
She says take me home

Another drink then watch the lightning words ignite the pastured ink
Like scattering leaves or shaping sands or holding out our empty hands
And in the streets there are lights on
So we can see what lies beyond
As the miles are slipping away

(hey, hey)

Dont go that way
or youre gonna go this alone
She says take me home

Chords

Intro:
AM        Bm      C#m    D7     Dm
AM        Bm      C#m    E7      E7

V1:
AM     C#m     F#m     AM
AM     C#m     F#m     AM
AM     C#m     Dm      AM
Dm     AM     (B)     (C#)

Chorus:
Dm        EM      C#m    F#m
C#m       F#m
Dm        EM      C#m    F#m

T:
AM        Dm    AM          EM

V2:
AM     C#m     F#m     AM
AM     C#m     F#m     AM
AM     C#m     Dm     AM
Dm     AM     (B)    (C#)

Chorus:
Dm        EM      C#m   F#m
C#m       F#m
Dm        EM      C#m   F#m

Tag:
AM        Dm      AM      EM

Jam:
AM        Bm      C#m    D7   Dm
AM        Bm      C#m    D7   Dm
AM        Bm      C#m    D7   Dm
AM        Bm      C#m    E7      E7
AM        C#m  F#m  or   D7   AM
AM        C#m  F#m       AM
AM        C#m  F#m       AM

Guitar Tabs
******The chord names below are written to represent the finger positions not the actual notes.
So, for example the first chord is written GM but sounds AM when played because of the capo.*****

CAPO 2nd
Intro
[ Tab from: http://www.guitartabs.cc/tabs/c/chris_rubeo/lights_crd.html ]
x----0----2----3----3-|
x----1----3----5----2-|
4----2----4----3----5-|
5----2----4----5----5-|
5----0----2----3----3-|
3----x----x----x----x-|

GM   AM   Bm   C7   Cm

x----0----x----5-|
x----1----3----7-|
4----2----4----5-|
5----2----4----7-|
5----0----2----5-|
3----x----x----x-|

GM   AM   Bm   D7

V1

3----2----0----3--------3----2----0----3-|
0----3----0----0--------0----3----0----0-|
0----4----0----0--------0----4----0----0-|
0----4----2----0--------0----4----2----0-|
2----2----2----2--------2----2----2----2-|
3----x----0----3--------3----x----0----3-|

GM   Bm   EM   GM            GM    Bm   EM   GM

So and now                      Beacons on the


3----2----x----3--------x----3----0----2-|
0----3----1----0--------1----0----1----3-|
0----4----0----0--------0----0----2----4-|
0----4----2----0--------2----0----2----4-|
2----2----3----2--------3----2----0----2-|
3----x----x----3--------x----3----x----x-|

GM  Bm  Cm  GM         Cm   GM   AM    Bm

And some nights           As the miles are slipping away

x----2----2----0--------2----0-|
1----3----3----0--------3----0-|
0----2----4----0--------4----0-|
2----0----4----2--------4----2-|
3----x----2----2--------2----2-|
x----x----x----0--------x----0-|

Cm  Dm   Bm   EM              Bm   EM

Chorus

Dont go that way             Go this alone

x----2----2----0--------3----3----3----5-----|
1----3----3----0--------3----4----3----7-----|
0----2----4----0--------4----5----4----5-----|
2----0----4----2--------5----5    ----5----7-|
3----x----2----2--------5----3----5----5-----|
x----x----x----0--------3----3----3----5-----|

Cm  Dm   Bm   EM              GM    Cm   GM    D7

She said                                     home

V2 (same as V1)
Chorus

Jam at end
||----x----0----2----3----3----:||
||----x----1----3----5----2----:||
||----4----2----4----3----5----:||
||----5----2----4----5----5----:||
||----5----0----2----3----3----:||
||----3----x----x----x----x----:||

||    GM    AM  Bm  C7   Cm     :|| (repeat 3x)

x----0----x----5-|
x----1----3----7-|
4----2----4----5-|
5----2----4----7-|
5----0----2----5-|
3----x----x----x-|

GM  AM    Bm   D7
Comments