Chris Rea - Driving Home For Christmas Chords & Tabs

 

Driving Home For Christmas Chords & Tabs

Chris Rea Chords & Tabs

Version: 2 Type: Bass Tab 0 ratings
1 star 2 stars 3 stars 4 stars 5 stars
comments

Driving Home For Christmas Bass Tab

   
-------------------------------------------------------------------------------
                  Driving home for christmas - Chris Rea
-------------------------------------------------------------------------------
Tabbed by: Peter Lok
E-mail:    peter.lok@12move.nl

Tuning: EADG


Verse (I'm driving home for Christmas...)

G|----------------|----------------|----------------|----------------|
D|----------------|----------------|----------------|----------------|
A|----------------|------------2-4-|5---0---5--00-4-|5---0---5-------|
E|5---0---5--00-4-|5---0---5--5----|----------------|-----------00-4-|



Chorus (And it's been so long..)

G|----------------|----------------|----------------|
D|--------4-------|----4---2-------|--------4-------|
A|4-----------4---|2-----------5---|4-----------4---|
E|----4-----------|----------------|----4-----------|
[ Tab from: http://www.guitartabs.cc/tabs/c/chris_rea/driving_home_for_christmas_btab_ver_2.html ]
G|----------------|----------------|----------------|
D|----4---2-------|--------4-------|------------2---|
A|2-----------5---|4-----------4---|2---4---5-------|
E|----------------|----4-----------|----------------|


Bridge (He's just the same....)

G|----------------|----------------|----------------|
D|----------------|----------------|--------0-002-22|
A|----------------|5--------------0|2-224-44--------|
E|5---------------|----------------|----------------|

G|----------------|----------------|----------------|
D|4-442-220-00----|----------------|----------------|
A|------------4-44|2---------------|2---------------|
E|----------------|--------3-------|----------------|


Verse
Chorus
Verse 
Chorus
Bridge
Verse
Chorus
Verse
Verse

There is a lot of variation in the verses, just improvise a bit.


| /  slide up
| \  slide down
| h  hammer-on
| p  pull-off
| ~  vibrato
| +  harmonic
| x  Mute note
===============================================================================
Comments