Chris Lane - Chris Lane Chords & Tabs

 

Chris Lane Chords & Tabs

Chris Lane Chords & Tabs

Version: 1 Type: Tab 0 ratings
1 star 2 stars 3 stars 4 stars 5 stars
comments

Chris Lane Tab

tab by chris lane
i was foling around and i made a song it sounds pretty good u can email me about it at cjlane380@hotmail.com

--------0------------0-------
--------0------------0-------
----2---2-x8---------0-x8----
----2---2--------2---2-------
----0---0--------2---2------- 
----------------------------- 
[ Tab from: http://www.guitartabs.cc/tabs/c/chris_lane/chris_lane_tab.html ]
---------0-----------0--------- 
---------0-----------0--------- 
---6-----6-x8----4---4---x8----
---6-----6-------4---4---------
---4-----4-------2---2--------- 
-------------------------------
repeat ^all of this twice then come to this:
-0----------------0----------0----------0---------0---- 
-0(pause)---------0----------0----------0---------0---- 
-2-------x2---7---7-x8----9--9-x8---7---7-x8---6--6-x8-
-2------------7---7-------9--9------7---7------6--6----
-0------------5---5-------7--7------5---5------4--4---- 
-------------------------------------------------------
ending.....repeat everything up top twice  before going to ending
-0-------------0--------------- 
-0-------------0--------------- 
-2-x3----------0----------------- 
-2-------------2--------------- 
-0-------------2--------------- 
-----------------------------
Comments