Chris Farlowe - Fool Chords & Tabs

 

Fool Chords & Tabs

Chris Farlowe Chords & Tabs

Version: 1 Type: Tab 0 ratings
1 star 2 stars 3 stars 4 stars 5 stars
comments

Fool Tab

Song: The Fool
Artist: Chris Farlowe
Album: Out Of Time, The Immediate Anthology
Tabbed By: Simon Driscoll

Here's the main riff for this song. It's played slightly
differently by the backing band than the guitar, but it's
a simple riff anyway so either way of playing it shouldn't
cause you a problem as long as you're not a complete beginner,
but even if you are it shouldn't take ages to learn.

Main Riff:

E-1--4b--1-----1----------------------------------------|
B-1--3b-----4-----4--1----------------------------------|
G-----------------------1b------------------------------|
D---------------------------3---------------------------|
A-------------------------------------------------------|
E-------------------------------------------------------|
[ Tab from: http://www.guitartabs.cc/tabs/c/chris_farlowe/fool_tab.html ]
One time it's played this way:
E-3--6b--3-----3----------------------------------------|
B-3--5b-----6-------------------------------------------|
G-----------------5--3----------------------------------|
D-----------------------5-------------------------------|
A-------------------------------------------------------|
E-------------------------------------------------------|

And this is how the backing band play it:
E-1--4b--1--4--1----------------------------------------|
B-1--3b-----------4--1----------------------------------|
G-----------------------1b------------------------------|
D---------------------------3---------------------------|
A-------------------------------------------------------|
E-------------------------------------------------------|
Comments