Chris & Ethan - Live And Let Live Chords & Tabs

 

Live And Let Live Chords & Tabs

Chris & Ethan Chords & Tabs

Version: 1 Type: Tab 0 ratings
1 star 2 stars 3 stars 4 stars 5 stars
comments

Live And Let Live Tab

   
LIVE AND LET LIVE
Bloodrise Band


Intro: (Guitar 1)(Play twice before guitar 2)(Repeat through song)

E----3---5--3--5--3-------------------
B---3-3-------------------------------
G--0----------------------------------
D-------------------------------------
A-------------------------------------
E-------------------------------------

(Guitar 2)(Repeat Four Times)
E-------------------------------------
B-------------------------------------
G-----------7------5------5-----------
D----5-----7-7----5-5----5-5----------
A---5-5---5------3------3-------------
E--3----------------------------------

Chorus:
 G      D     C     G           D
Live and let live, I’m leaving you 
 C
Tonight.
  G        D     C           G      
So live and let live, I got to live

  D     C
My own life. 

(Guitar 1)(Repeat Four Times)
[ Tab from: http://www.guitartabs.cc/tabs/c/chris_ethan/live_and_let_live_tab.html ]
E----3---5--3--5--3-------------------
B---3-3-------------------------------
G--0----------------------------------
D-------------------------------------
A-------------------------------------
E-------------------------------------

(Guitar 2)(Repeat Four Times)
E-------------------------------------
B-------------------------------------
G-----------7------5------5-----------
D----5-----7-7----5-5----5-5----------
A---5-5---5------3------3-------------
E--3----------------------------------

Chorus:
 G      D     C     G           D
Live and let live, I’m leaving you 
 C
Tonight.
  G        D     C           G      
So live and let live, I got to live

  D     C
My own life. 

G      D     C     G           D
Live and let live, I’m leaving you 
 C
Tonight.
  G        D     C           G      
So live and let live, I got to live

  D     C
My own life. 

E-------------------------------------
B----------------3---3----------------
G---------------2---2---2---0---0-----
D----0---0-----0---0---0---2---2---2--
A---2---2---2-------------3---3---3---
E--3---3---3--------------------------

(End with a G cord and let it ring)

  
Comments