Chris Duffey - Lucid Dream Chords & Tabs

 

Lucid Dream Chords & Tabs

Chris Duffey Chords & Tabs

Version: 1 Type: Tab 0 ratings
1 star 2 stars 3 stars 4 stars 5 stars
comments

Lucid Dream Tab

#----------------------------------PLEASE NOTE--------------------------------#
#This file is the author's own work and represents their interpretation of the#
#song. You may only use this file for private study, scholarship, or research.#
#-----------------------------------------------------------------------------#
#-- File created with Instab - http://www.pconline.com/~smcarey/instab.html --#
#-----------------------------------------------------------------------------#

Author/Artist: Chris Duffey
Title: Lucid Dream
Album: Ray's Garage
Transcribed by: Chris Duffey
Email: cnduffey@cfl.rr.com

Tuning is DADEAC#
The first guitar uses a  Digitech RP300 with the "Match" effect.  Basically it's
 some distortion with a little reverb.
The second guitar (which is not tabbed) plays small riffs throughout the song wi
th a wahwah, and chorus.

----0----0-----0--------------------x----x----x----x--------------------------|
----7----11----12-------------------x----x----x----x--------------------------|
----0----0-----0--------------------x----x----x----x--------------------------|
----7----11----12-------------------2----5----9----7--------------------------|
----0----0-----0--------------------2----5----9----7--------------------------|
----7----11----12-------------------2----5----9----7--------------------------|
 Chords used for verse           Chords used for the prechorus & chorus

----x-x-x-/-x--x--x--/-x--x--x--x--x--x---------------------------------------|
----x-x-x-/-x--x--x--/-x--x--x--x--x--x---------------------------------------|
----x-x-x-/-x--x--x--/-x--x--x--x--x--0---------------------------------------|
----7-7-7-/-11-11-11-/-12-12-12-12-12-12--------------------------------------|
----x-x-x-/-x--x--x--/-x--x--x--x--0--0---------------------------------------|
----7-7-7-/-11-11-11-/-12-12-12-12-12-12--------------------------------------|
 Intro: 2nd guitar: harmonics w/wahwah&chorus;1st guitar mutes verse chords

----x-x-0--/--x--x--0---/--x--x--0---x--x--0----------------------------------|
----x-x-7--/--x--x--11--/--x--x--12--x--x--12---------------------------------|
----0-0-0--/--0--0--0---/--0--0--0---0--0--0----------------------------------|
----7-7-7--/--11-11-11--/--12-12-12--12-12-12---------------------------------|
----0-0-0--/--0--0--0---/--0--0--0---0--0--0----------------------------------|
----7-7-7--/--11-11-11--/--12-12-12--12-12-12---------------------------------|
 Verse: PM first 2 strums of each chord.
[ Tab from: http://www.guitartabs.cc/tabs/c/chris_duffey/lucid_dream_tab.html ]
----x--x--x--x--x--x--x--\-x-x-x-x-x-x-x-/------------------------------------|
----x--x--x--x--x--x--x--\-x-x-x-x-x-x-x-/------------------------------------|
----0--0--0--0--0--0--0--\-x-x-x-x-x-x-x-/------------------------------------|
----12-12-12-12-12-12-12-\-2-2-2-2-2-2-2-/------------------------------------|
----0--0--0--0--0--0--0--\-2-2-2-2-2-2-2-/------------------------------------|
----12-12-12-12-12-12-12-\-2-2-2-2-2-2-2-/------------------------------------|
 Prechorus: First chord PM and slowly release or build. No lyrics here.

----x-x-x-/-x-x-x-x-\-x-x-x-x-x-x-x-\-|-\-x-x-x-x-x-x-x-x-x-x-x-x-/--x--------|
----x-x-x-/-x-x-x-x-\-x-x-x-x-x-x-x-\-|-\-x-x-x-x-x-x-x-x-x-x-x-x-/--x--------|
----x-x-x-/-x-x-x-x-\-x-x-x-x-x-x-x-\-|-\-x-x-x-x-x-x-x-x-x-x-x-x-/--0--------|
----5-5-5-/-9-9-9-9-\-7-7-7-7-7-7-7-\-|-\-2-2-2-2-2-2-2-2-2-2-2-2-/--7--------|
----5-5-5-/-9-9-9-9-\-7-7-7-7-7-7-7-\-|-\-2-2-2-2-2-2-2-2-2-2-2-2-/--0--------|
----5-5-5-/-9-9-9-9-\-7-7-7-7-7-7-7-\-|-\-2-2-2-2-2-2-2-2-2-2-2-2-/--7--------|
 Chorus: First 3 chords repeat 4x then: play the above then slide to:^

------------------------------------------------------------------------------|
-----7-------------11---------------12----------12----------------------------|
------------------------------------------------------------------------------|
---7---7--------11----11---------12----12----12----12-\-----------------------|
------------------------------------------------------------------------------|
-7-------7-/-11----------11-/-12----------12----------------------------------|
 Interlude: I play this much more complex, but this is sufficient.

---------------------------/^\------------------------------------------------|
--------------------------/---\-----------------------------------------------|
-----------------------------/------------------------------------------------|
----------------------------/-------------------------------------------------|
----------------------------1-------------------------------------------------|
----------------------------*-------------------------------------------------|
 Solo: My other guitarist improvises, so why don't you :)

----x-/-x-/-x-x-x-x-x-x-x-----------------------------------------------------|
----x-/-x-/-x-x-x-x-x-x-x-----------------------------------------------------|
----x-/-x-/-x-x-x-x-x-x-x-----------------------------------------------------|
----5-/-9-/-7-7-7-7-7-7-7-----------------------------------------------------|
----5-/-9-/-7-7-7-7-7-7-7-----------------------------------------------------|
----5-/-9-/-7-7-7-7-7-7-7-----------------------------------------------------|
 Outro: Whohoo, it's over!!
Comments