Chris De Burgh - A Spaceman Came Travelling Chords & Tabs

 

A Spaceman Came Travelling Chords & Tabs

Chris De Burgh Chords & Tabs

Version: 1 Type: Tab 0 ratings
1 star 2 stars 3 stars 4 stars 5 stars
comments

A Spaceman Came Travelling Tab

Artist:Chris De Burgh
Song: A Spaceman Came Travelling
Tuning: Standard (EADGBE)
Tabber: Dan Fallows (Sick of you)

One of the best songs put on a christmas album.

Intro

E-------------------------------|----------------------------|
B--6--8--6----------------------|-------6--8--6--------------|
G-----------9--7--5--7--7--5--7-|-7--9-----------9--7--5--7--|
D-------------------------------|----------------------------|
A-------------------------------|----------------------------|
E-------------------------------|----------------------------|

Or you can play it like this...
[ Tab from: http://www.guitartabs.cc/tabs/c/chris_de_burgh/a_spaceman_came_travelling_tab.html ]
E-------------------------------|-----------------------------|
B--6--8--6----------------------|-----------8--6--5-----------|
G-----------9--7--5--7--7--5--7-|-7--9--10-----------7--5--7--|
D-------------------------------|-----------------------------|
A-------------------------------|-----------------------------|
E-------------------------------|-----------------------------|

Or you can play it like this...

E--1--3--1--0--------------------|-----0--1--3--1--0------------|
B--------------3--1--3--3--1--3--|--3-----------------3--1--3---|
G--------------------------------|------------------------------|
D--------------------------------|------------------------------|
A--------------------------------|------------------------------|
E--------------------------------|------------------------------|

Finish with
E--------1-3-3/5~--------|
B--3--5------------------|
G------------------------|
D------------------------|
A------------------------|
E------------------------|

Thats it really, nice song to play.  Easy too!
Comments