Chris Connelly - The Last Of Joy Chords & Tabs

 

The Last Of Joy Chords & Tabs

Chris Connelly Chords & Tabs

Version: 1 Type: Tab 0 ratings
1 star 2 stars 3 stars 4 stars 5 stars
comments

The Last Of Joy Tab

#-----------------------------PLEASE NOTE-------------------------------------#
#This OLGA file is the author's own work and represents their interpretation  #
#of the song. You may only use this file for private study, scholarship, or   #
#research. Remember to view this file in Courier, or other monospaced font.   #
#See http://www.olga.net/faq/ for more information.                           #
#-----------------------------------------------------------------------------#

Subject: c/connelly_chris/the_last_of_joy.tab
Date: Thu, 12 Jun 1997 21:04:20 -0500 (CDT)
From: REMSPECHER 

Tabbed By: Terry Remspecher at s1002551@jinx.umsl.edu

I love this song. I love the lyrics. True poetry.

Anyway, on the album it was done on piano, but I tabbed it out for guitar,
hope someone enjoys this.


1) The stars are  al......ways   there
2) and pray  ing  towards the shoreline

e------2-------------------------0-------|
b------3-------------------------2-------|
g------2------2---4-------2------2-------|
d------0-------------------------2-------|
a--------------------------------0-------|
e----------------------------------------|

[ Tab from: http://www.guitartabs.cc/tabs/c/chris_connelly/the_last_of_joy_tab.html ]
1) Coll..apsed in..to the crests
2) Where drown ing is the best

e--------0----------------0--------------|
b--------1----------------2--------------|
g--------0----0---2---0---2--------------|
d--------2----------------2--------------|
a--------3----------------0--------------|
e----------------------------------------|


1) Join hands as we walk to the water
2) Our  lights turned out for a while

e-------1-----------3-----------4-----4--|
b-------2-----------------------4-----4--|
g-------3-----------------------5-----5--|
d-------3-----------------------6-----6--|
a-------1-----------------------6--------|
e-------------------------------4--------|


Sucked in by the sinking sand

e------0---------2-------3---------------|
b------0-----------------3---3-----------|
g------------------------3---3-----------|
d------2-----------------5---5-----------|
a------2-----------------5---------------|
e------0-----------------3---------------|


 I must let go of your hand....  don't look down

e--0--------2----------3---3-------3---|
b--1-------------------3---3---3---3---|
g--0-------------------4---4---4---4---|
d--2-------------------5-------5-------|
a--3-------------------5-------5-------|
e----------------------3-------3-------|
Comments