Chom Ass - Isyan Chords & Tabs

 

Isyan Chords & Tabs

Chom Ass Chords & Tabs

Version: 1 Type: Tab 0 ratings
1 star 2 stars 3 stars 4 stars 5 stars
comments

Isyan Tab

Chom-Ass Isyan!!!
1.Gitar:
                                                                             
E||-----------------------------------------------------------------------------
B||-----------------------------------------------------------------------------
G||-----------------------------------------------------------------------------
D||-----------------------------------------------------------------------------
A||--7--9--10--9--7--6--7--6----6----6--7--9--10--9--7--6--7--6----6----6--7--9-
E||-----------------------------------------------------------------------------


                                        7x
||--------------------------------------||
||--------------------------------------||
||*------------------------------------*||
||*--2--2--7--6--3--2--3--2----2----2--*||
||---2--2--7--6--3--2--3--2----2----2---||
||---0--0--5--4--1--0--1--0----0----0---||


                                                                                
--------------------------------------------------------------------------------
--------------------------------------------------------------------------------
*-------------------------------------------------------------------------------
*--5--5--5--5--------------5--5--5--5--------------7--7--7--7--------------7--7-
---5--5--5--5--------------5--5--5--5--------------7--7--7--7--------------7--7-
---3--3--3--3--0--3--4--4--3--3--3--3--0--3--4--4--5--5--5--5--0--5--6--6--5--5-


                                                                                
--------------------------------------------------------------------------------
--------------------------------------------------------------------------------
--------------------------------------------------------------------------------
--5--5--5--5--------------5--5--5--5--------------7--7--7--7--------------7--7--
--5--5--5--5--------------5--5--5--5--------------7--7--7--7--------------7--7--
--3--3--3--3--0--3--4--4--3--3--3--3--0--3--4--4--5--5--5--5--0--5--6--6--5--5--


                                        7x
||--------------------------------------||
||--------------------------------------||
||*------------------------------------*||
||*--2--2--7--6--3--2--3--2----2----2--*||
||---2--2--7--6--3--2--3--2----2----2---||
||---0--0--5--4--1--0--1--0----0----0---||


                                                                          
|-----------------------------------|
|-----------------------------------|
|-----------------------------------|
|--3--------------------------------|
|--3--------------------------------|
|--1--------------------------------|


                                                                              
|-------------------------------------|-------------------------------------||
|-------------------------------------|-------------------------------------||
|*------------------------------------|------------------------------------*||
|*------------------------------------|------------------------------------*||
|---------------6-6-6-7--6-6-6-6-7--6-|--------------8-8-8-9--8-8-8-8-9--8--||
|---------------4-4-4-5--4-4-4-4-5--4-|--------------6-6-6-7--6-6-6-6-7--6--||

                                                                                
|-------------------------------------------------------------------------------
|-------------------------------------------------------------------------------
|*------------------------------------------------------------------------------
|*------------------------------------------------------------------------------
|---6-6-6-7--6-6-6-6-7--6-6-6-6-7--6-6-6-6-7--6-8-8-8-9--8-8-8-8-9--8-8-8-8-9--8
|---4-4-4-5--4-4-4-4-5--4-4-4-4-5--4-4-4-4-5--4-6-6-6-7--6-6-6-6-7--6-6-6-6-7--6


                                                
||---------------------------------------------|
||---------------------------------------------|
||*--------------------------------------------|
||*--------------------------------------------|
||---6-6-6-7--6-6-6-6-7--6-6-6-6-7--6-0--0--0--|
||---4-4-4-5--4-4-4-4-5--4-4-4-4-5--4-0--0--0--|


                                                                            
---------------------------------------------||----------------------------|
---------------------------------------------||----------------------------|
--------------------------------------------*||----------------------------|
--------------------------------------------*||----------13----------------|
--8-8-8-9--8-8-8-8-9--8-8-8-8-9--8-0--0--0---||----------13----------------|
--6-6-6-7--6-6-6-6-7--6-6-6-6-7--6-0--0--0---||----------11----------------|


                                       7x                                     
|--------------------------------------||------------------------------------|
|--------------------------------------||------------------------------------|
|*------------------------------------*||------------------------------------|
|*--2--2--7--6--3--2--3--2----2----2--*||--2--2--7--6--3--2--3--2----2----2--|
|---2--2--7--6--3--2--3--2----2----2---||--2--2--7--6--3--2--3--2----2----2--|
|---0--0--5--4--1--0--1--0----0----0---||--0--0--5--4--1--0--1--0----0----0--|

[ Tab from: http://www.guitartabs.cc/tabs/c/chom_ass/isyan_tab.html ]
                                                             
|--------------------------------------||------------------||
|--------------------------------------||------------------||
|*------------------------------------*||------------------||
|*--2--2--7--6--3--2--3--2----2----2--*||------------------||
|---2--2--7--6--3--2--3--2----2----2---||------------------||
|---0--0--5--4--1--0--1--0----0----0---||------------------||

2. Gitar:
                                                                            
E||-----------------------------------------------------------------------------
B||-----------------------------------------------------------------------------
G||-----------------------------------------------------------------------------
D||-----------------------------------------------------------------------------
A||--------------------------------------------------------------x--x--x--x--x--
E||--------------------------------------------------------------0--0--0--0--0--


                                        7x
||--------------------------------------||
||--------------------------------------||
||*------------------------------------*||
||*------------------------------------*||
||---2--2--7--6--3--2--3--2----2----2---||
||---0--0--5--4--1--0--1--0----0----0---||


                                                                                
--------------------------------------------------------------------------------
--------------------------------------------------------------------------------
*-------------------------------------------------------------------------------
*-------------------------------------------------------------------------------
---5--5--5--5--------------5--5--5--5--------------7--7--7--7--------------7--7-
---3--3--3--3--0--3--4--4--3--3--3--3--0--3--4--4--5--5--5--5--0--5--6--6--5--5-


                                                                                
--------------------------------------------------------------------------------
--------------------------------------------------------------------------------
--------------------------------------------------------------------------------
--------------------------------------------------------------------------------
--5--5--5--5--------------5--5--5--5--------------7--7--7--7--------------7--7--
--3--3--3--3--0--3--4--4--3--3--3--3--0--3--4--4--5--5--5--5--0--5--6--6--5--5--


                                        7x
||--------------------------------------||
||--------------------------------------||
||*------------------------------------*||
||*------------------------------------*||
||---2--2--7--6--3--2--3--2----2----2---||
||---0--0--5--4--1--0--1--0----0----0---||

                                                                               
                                                                              
|-------------------------------------|-------------------------------------||
|-------------------------------------|-------------------------------------||
|*------------------------------------|------------------------------------*||
|*------------------------------------|------------------------------------*||
|---------------6-6-6-7--6-6-6-6-7--6-|--------------8-8-8-9--8-8-8-8-9--8--||
|---------------4-4-4-5--4-4-4-4-5--4-|--------------6-6-6-7--6-6-6-6-7--6--||

                                                                                
|-------------------------------------------------------------------------------
|-------------------------------------------------------------------------------
|*------------------------------------------------------------------------------
|*------------------------------------------------------------------------------
|---6-6-6-7--6-6-6-6-7--6-6-6-6-7--6-6-6-6-7--6-8-8-8-9--8-8-8-8-9--8-8-8-8-9--8
|---4-4-4-5--4-4-4-4-5--4-4-4-4-5--4-4-4-4-5--4-6-6-6-7--6-6-6-6-7--6-6-6-6-7--6


                                                
||---------------------------------------------|
||---------------------------------------------|
||*--------------------------------------------|
||*--------------------------------------------|
||---6-6-6-7--6-6-6-6-7--6-6-6-6-7--6-0--0--0--|
||---4-4-4-5--4-4-4-4-5--4-4-4-4-5--4-0--0--0--|


                                                                            
---------------------------------------------||----------------------------|
---------------------------------------------||----------------------------|
--------------------------------------------*||----------------------------|
--------------------------------------------*||----------13----------------|
--8-8-8-9--8-8-8-8-9--8-8-8-8-9--8-0--0--0---||----------13----------------|
--6-6-6-7--6-6-6-6-7--6-6-6-6-7--6-0--0--0---||----------11----------------|


                                       7x                                  
|--------------------------------------||----||------||------------------||
|--------------------------------------||----||------||------------------||
|*------------------------------------*||----||*----*||------------------||
|*------------------------------------*||----||*----*||------------------||
|---2--2--7--6--3--2--3--2----2----2---||----||------||------------------||
|---0--0--5--4--1--0--1--0----0----0---||----||------||------------------||



Comments