Choking Victim - Infested Chords & Tabs

 

Infested Chords & Tabs

Choking Victim Chords & Tabs

Version: 5 Type: Bass Tab 0 ratings
1 star 2 stars 3 stars 4 stars 5 stars
comments

Infested Bass Tab

   
artist: choking victim
song: infested 
Part A 
Punk Strumming 
G|---------------------------------------------------------| 
D|---------------------------------------------------------| 
A|7--7-7-7-7-7---------------------------------------------| 
E|---------------5--5-5-5-5-5--9--9-9-9-9-9--7--7-7-7-7-7--| 
  

Part B                       (Play part after starts only 
Let Ring Out                  The very last time, right before ska part) 
G|----------------------------*----------| 
D|----------------------------*----------| 
A|7---------------------------*----------| 
E|-------5-------9-------7----*--9--11---| 
[ Tab from: http://www.guitartabs.cc/tabs/c/choking_victim/infested_btab_ver_5.html ]
Part C 
Ska   (This part is sick!!!) 
G|-----------------------------------------------------------------| 
D|---------9-9-9-9-------------------------------------------------| 
A|-7-7-7-7-------------7-7----------------11-11-11-11------9-9-----| 
E|----------------5-5------5-5---9-9-9-9---------------7-7-----7-7-| 
  
Part D 

G|--------------------------------| 
D|--------------------------------| 
A|7-7-----------------------------| 
E|-------5-5-----9-9--9-9----7-7--| 
  

This Is The Play Order Of The Song Fom Start To Finish: 

Part A  X6 
Part C  X4 
Part A  X2 
Part C  X2 
Part D  X2 
Part A  X2 
Part B  X6 
Part C  X2 
Part A  X6
Comments