Choking Victim - Infested Chords & Tabs

 

Infested Chords & Tabs

Choking Victim Chords & Tabs

Version: 4 Type: Bass Tab 0 ratings
1 star 2 stars 3 stars 4 stars 5 stars
comments

Infested Bass Tab

   
----------------------------------------------------------------------------
			     Infested - Choking Victim
----------------------------------------------------------------------------

Tabbed By : Tresus
e-mail: fishinbob87@hotmail.com
[ Tab from: http://www.guitartabs.cc/tabs/c/choking_victim/infested_btab_ver_4.html ]
Tuning: Normal
Intro/Verse
G|-----------------------------------------------------------------------|
D|22222222---------------------------------------------------------------|X6
A|----------00000000--44444444--22222222---------------------------------|
E|-----------------------------------------------------------------------|
Chorus/Ska Part
G|------4444-------------------------------------------------------------|
D|2-22------------2-----------6666---------------------------------------|X4
A|------------0-0---0----4444-------2-22--0------------------------------|
E|------------------------------------------4-2--------------------------|
Verse
G|-----------------------------------------------------------------------|
D|22222222---------------------------------------------------------------|X2
A|----------00000000--44444444--22222222---------------------------------|
E|-----------------------------------------------------------------------|
Chorus/Ska Part
G|------4444-------------------------------------------------------------|
D|2-22------------2-----------6666---------------------------------------|X2
A|------------0-0---0----4444-------2-0----------------------------------|
E|--------------------------------------4-2------------------------------|
Verse
G|-----------------------------------------------------------------------|
D|22222222---------------------------------------------------------------|X2
A|----------00000000--44444444--22222222---------------------------------|
E|-----------------------------------------------------------------------|
Slow Part
G|-----------------------------------------------------------------------|
D|2----------------------2----------------------2------------------------|
A|---0--4--2----0--4--2-----0--4--2----0--4--2-----0--4--2---------------|
E|------------0----------------------0-----------------------------------|
Chorus/Ska Part
G|------4444-------------------------------------------------------------|
D|2-22------------2-----------6666---------------------------------------|X2
A|------------0-0---0----4444-------2-0----------------------------------|
E|--------------------------------------4-2------------------------------|

G|-----------------------------------------------------------------------|
D|22222222---------------------------------------------------------------|X6
A|----------00000000--44444444--22222222---------------------------------|
E|-----------------------------------------------------------------------|



| /  slide up
| \  slide down
| h  hammer-on
| p  pull-off
| ~  vibrato
| +  harmonic
| x  Mute note
============================================================================
Comments