Choking Victim - Infested Chords & Tabs

 

Infested Chords & Tabs

Choking Victim Chords & Tabs

Version: 3 Type: Bass Tab 0 ratings
1 star 2 stars 3 stars 4 stars 5 stars
comments

Infested Bass Tab

-----------------------------------------------------------------------------
			     Infested - Choking Victim
-----------------------------------------------------------------------------
Tabbed By : crackdaddycaine
e-mail:crackdaddycaine@hotmail.com


Intro/Heavier punkish part           lead into ska part

G|--------------------------------I-----------------------------------------
D|--------------------------------I-----------------------------------------
A|--77777-------------------------I--77777----------------------------------
E|--------55555---99999---77777---I----------55555---99999--7-5-4-2---------


ska part                                             back into heavy part
[ Tab from: http://www.guitartabs.cc/tabs/c/choking_victim/infested_btab_ver_3.html ]
G|--------------------------------------------------I-----------------------
D|-------9999----------------------6666-------------I-6666------------------
A|-7777-------5------5-------4444---------4-44-3----I-------4-3-------------
E|---------------7-------7------------------------6-I-----------6-5---------

slow part (around 1:36)

G|--------------------------------------------------------------------------
D|--------------------------------------------------------------------------
A|---7----------------------------------------------------------------------
E|--------5----9----7------1----5----9----7---------------------------------

  Thats the whole song i think, its pretty fuckin close anyway.
Comments