Choking Victim - In My Grave Chords & Tabs

 

In My Grave Chords & Tabs

Choking Victim Chords & Tabs

Version: 1 Type: Tab 0 ratings
1 star 2 stars 3 stars 4 stars 5 stars
comments

In My Grave Tab

   
-----------------------------------------------------------------------------
			     In my Grave - Choking Victim
----------------------------------------------------------------------------Tabbed by: 
Duhaime (quo_vadis)


Riff1
(ska beat listen to the song to find out the rhyme)
e|-6-5--|
B|-6-6--|
G|-7-7--|
D|-8----|
A|------|
E|------|

riff 2
(distortion...to...ska.......)
e|-----------------55x5x5x5x5-|
B|-----------------66x6x6x6x6-|
G|-----------8-8-7-77x7x7x7x7-|
D|-6-6666666-8-8-7------------|
A|-6-6666666-6-6-5------------|
E|-4-4444444------------------|

riff3
e|-------------------------|
B|-------------------------|
G|-----------8-8-7---------|
D|-6-6666666-8-8-7-(pause)-|
A|-6-6666666-6-6-5---------|
E|-4-4444444---------------|

solo (i guess... btw they stole that from slayer for does of u who didn't notice by now)
e|-----------|
B|-----------|
G|-----------|
D|-898-87-76-|
A|7---9--8---|
E|-----------|
[ Tab from: http://www.guitartabs.cc/tabs/c/choking_victim/in_my_grave_tab.html ]
riff4
e|-------------------------------------------------------------|
B|-------------------------------------------------------------|
G|-------------------7-8-1012-108-----------------7-8-1012-108-|
D|-8-88-888-8-88-888-x-x-x-x -x-x-8-1012-13-12-10-x-x-x-x -x-x-|
A|-8-88-888-8-88-888-5-6-8-10-8-6-x-x-x -x - x-x--5-6-8-10-8-6-|
E|-6-66-666-6-66-666--------------6-8-10-11-10-8---------------|

riff5
e|--------------------------|
B|--------------------------|
G|-----------8-8-7----10----|
D|-6-6666666-8-8-x----x-----|
A|-6-6666666-6-6-5----8-----|
E|-4-4444444----------------|

riff6
e|---------|
B|---------|
G|7-78-888-|
D|7-78-888-|
A|5-56-666-|
E|---------|

riff7
e|---------------|
B|---------------|
G|19-1920-202020-|
D|19-1920-202020-|
A|17-1718-181818-|
E|---------------|



| /  slide up
| \  slide down
| h  hammer-on
| p  pull-off
| ~  vibrato
| +  harmonic
| x  Mute note
=============================================================================
Comments