Choking Victim - In Hell Chords & Tabs

 

In Hell Chords & Tabs

Choking Victim Chords & Tabs

Version: 1 Type: Tab 0 ratings
1 star 2 stars 3 stars 4 stars 5 stars
comments

In Hell Tab

   
-------------------------------------------------------------------------------
			     In Hell - Choking Victim
-------------------------------------------------------------------------------
Tabbed by:Matt Gilles
Email:insaneotter9@yahoo.com

Tuning:Standard

One, if not both, of the guitars uses drop d tuning on this song, but it 
only changes one chord in the song. In the choruses, the Eb chord is dropped
down, but as i tabbed it, i had it just go an octave up. The shit's palm muted
so you can't really tell the difference, on account of the bass playing the 
same thing.

intro
guitar 1 
e|----------------------------------------|
B|----------------------------------------|
G|-------111111-------888-------444-------| 2x
D|--999--111111--666--888--222--444--444--|
A|--999--9-9-9---666--666--222--222--444--|
E|--777----------444-------000-------222--|
guitar2
e|----------------------------------------|
B|----------------------------------------|
G|-------11-----------8---------4---------| 2nd time through guitar 1's part
D|--9----11------6----8----2----4----4----|
A|--9----9-------6----6----2----2----4----|
E|--7------------4---------0---------2----|


verse 
e|----------------------------------------------------------------------|
B|----------------------------------------------------------------------|
G|-------111111-------888-------444--------16--15--13--11--9--8--9--11--| 
D|--999--111111--666--888--222--444--444---xx--xx--xx--x---x--x--x--x---|
A|--999--9-9-9---666--666--222--222--444---14--13--11--9---7--6--7--9---|
E|--777----------444-------000-------222--------------------------------|

e|-------------------------------|
B|-------------------------------|
G|--16--15--13--11--9--8--9--11--| 
D|--xx--xx--xx--x---x--x--x--x---|
A|--14--13--11--9---7--6--7--9---|
E|-------------------------------|

[ Tab from: http://www.guitartabs.cc/tabs/c/choking_victim/in_hell_tab.html ]
chorus (check song for rhythm)
	 the Eb
e|------pm------------|     ---------------|
B|--------------------|     ---------------|
G|----------8--8------| 3x  ---------------|
D|------6---8--8-(6x)-|     ---2--4--6--8--|
A|------6---6--6------|     ---2--4--6--8--|
E|------4-------------|     ---0--2--4--6--|


verse 
e|----------------------------------------------------------------------|
B|----------------------------------------------------------------------|
G|-------111111-------888-------444--------16--15--13--11--9--8--9--11--| 
D|--999--111111--666--888--222--444--444---xx--xx--xx--x---x--x--x--x---|
A|--999--9-9-9---666--666--222--222--444---14--13--11--9---7--6--7--9---|
E|--777----------444-------000-------222--------------------------------|

e|-------------------------------|
B|-------------------------------|
G|--16--15--13--11--9--8--9--11--| 
D|--xx--xx--xx--x---x--x--x--x---|
A|--14--13--11--9---7--6--7--9---|
E|-------------------------------|


chorus (check song for rhythm)
	 the Eb
e|------pm------------|     ---------------|
B|--------------------|     ---------------|
G|----------8--8------| 3x  ---------------|
D|------6---8--8-(6x)-|     ---2--4--6--8--|
A|------6---6--6------|     ---2--4--6--8--|
E|------4-------------|     ---0--2--4--6--|


bridge (exact same as intro)
guitar 1 
e|----------------------------------------|
B|----------------------------------------|
G|-------111111-------888-------444-------| 2x
D|--999--111111--666--888--222--444--444--|
A|--999--9-9-9---666--666--222--222--444--|
E|--777----------444-------000-------222--|
guitar2
e|----------------------------------------|
B|----------------------------------------|
G|-------11-----------8---------4---------| 2nd time through guitar 1's part
D|--9----11------6----8----2----4----4----|
A|--9----9-------6----6----2----2----4----|
E|--7------------4---------0---------2----|


outro (check song for rhythm)
e|-------------------------------|
B|-------------------------------|
G|--16--15--13--11--9--8--9--11--| (2x) 
D|--xx--xx--xx--x---x--x--x--x---|
A|--14--13--11--9---7--6--7--9---|
E|-------------------------------|

e|-------------------------------|
B|-------------------------------|
G|--16--15--16--18--20--18-------| (2x)
D|--xx--xx--xx--xx--xx--xx-------|
A|--14--13--14--16--18--16-------|
E|-------------------------------|



===============================================================================
Comments