Choking Victim - Crack Rock Steady Chords & Tabs

 

Crack Rock Steady Chords & Tabs

Choking Victim Chords & Tabs

Version: 1 Type: Tab 0 ratings
1 star 2 stars 3 stars 4 stars 5 stars
comments

Crack Rock Steady Tab

   
-----------------------------------------------------------------------------
			     Crack Rock Steady - Choking Victim
-----------------------------------------------------------------------------
Tabbed by:Derek c
Email:ishotthepolice@yahoo.com

Tuning:down 1/2 step
Guitar 1 (plays with bass)
eb|--------------------------------------------------------------------------|
Bb|--------------------------------------------------------------------------|
Gb|-------------------------------------------------4------------------------|
Db|---------------------------4-7---4-7---4-7---4-7---7-4--------------------|
Ab|---4-7---4-7---4-7---4-7-5-----5-----5-----5-------------4-7--4-7---4-7---|
Eb|-5-----5-----5-----5-----------------------------------5-----5----5-------|
[ Tab from: http://www.guitartabs.cc/tabs/c/choking_victim/crack_rock_steady_tab.html ]
eb|--------------------------------------------------------------------------|
Bb|--------------------------------------------------------------------------|
Gb|--------------------------------------------------------------------------|
Db|--------------------------------------------------------------------------|
Ab|---4-7--------------------------------------------------------------------|
Eb|-5-----0-4-7-0-4-7-0-4-7-0-4-7--------------------------------------------|

Guitar 2(Skank Rythmn)
eb|-5----2----5----4---------------------------------------------------------|
Bb|-5----3----5----5---------------------------------------------------------|
Gb|-6----2----6----4---------------------------------------------------------|
Db|-7---------7--------------------------------------------------------------|
Ab|--------------------------------------------------------------------------|
Eb|--------------------------------------------------------------------------|


| /  slide up
| \  slide down
| h  hammer-on
| p  pull-off
| ~  vibrato
| +  harmonic
| x  Mute note
===============================================================================
Comments