Choking Victim - 5 Finger Discount Chords & Tabs

 

5 Finger Discount Chords & Tabs

Choking Victim Chords & Tabs

Version: 1 Type: Bass Tab 0 ratings
1 star 2 stars 3 stars 4 stars 5 stars
comments

5 Finger Discount Bass Tab

----------------------------------------------------------------------------
	          5 Finger Discount - Choking Victim
----------------------------------------------------------------------------

Tabbed By : crackdaddycaine
e-mail: crackdaddycaine@hotmail.com


Intro/Verse
G|--------------------------------------------------
D|------------4--7--9--7--5-------------------------
A|----4--7--5---------------7--5--4-----------------
E|--5-------------------------------7---------------

[ Tab from: http://www.guitartabs.cc/tabs/c/choking_victim/5_finger_discount_btab.html ]
Chorus
G|------------------------------------------------------
D|------------------------------------------------------
A|--------------3(hold)-----------------44444444--------
E|--4(hold)----------------1(hold)----------------------


Bridge
G|--------------------------------------------
D|--------------------------------------------
A|----------4444------------6666--------------
E|---4444----------6666-----------------------


Outro
G|-------------------------------------------------
D|-------------------------------------------------
A|----4-------3-------1-------0--------------------
E|------------------------------------4------------
Comments