Choir - Restore My Soul Chords & Tabs

 

Restore My Soul Chords & Tabs

Choir Chords & Tabs

Version: 1 Type: Bass Tab 0 ratings
1 star 2 stars 3 stars 4 stars 5 stars
comments

Restore My Soul Bass Tab

Restore My Soul
The Choir

 means to slide.  8\0 = slide from the eigth fret to open string

Numbers under tab: 1 = whole note, 2 = half note, 4 = quarter note, etc.  2* = dotted half note,  1~8 = tied notes.  Times are approximate.  Kiss a swarthy penguin.

R= Rest
[ Tab from: http://www.guitartabs.cc/tabs/c/choir/restore_my_soul_btab.html ]
------------------------------------------------------------------------------------------------------------------------------
-----------------------------------------------------------5-----------------------------------------0-----5---4-----7--5--
----------5---4----------------------5---4-----------0--------4---0-----8\0--------5----4-------------------------0---------
--0----------------0--0--------0-------------0----------------------------------0-------------0-0---------------------------
  2       4   4    2  4 R4     2     4   4   2 R2    2     4  4   2     2       2  4    4     2 2    2     4   4  2  2  4 

---------------------------------------------------------------------------------------------------------------------
---------------------------------------------------------------------------------------------------------------------
----------5-5--7-------------5---4------------5--5--7---------5---5---4------------------------------------------
--0-------------------0-------------------0----------------0---------------------------------------------------------
  2       8 8  4      2      4   4        2   8  8  4      2  8   8   4
Comments