Chixdiggit - Chupacabra Chords & Tabs

 

Chupacabra Chords & Tabs

Chixdiggit Chords & Tabs

Version: 2 Type: Bass Tab 0 ratings
1 star 2 stars 3 stars 4 stars 5 stars
comments

Chupacabra Bass Tab

Chixdiggit - Chupacabra
Tabbed By Niall Polson - pantera@vol.net
I think its standard tuning, but I can't be sure (G,D,A,E)

Intro (x3)

g-----------------------------------------------------------------------------
d---7-----7----7--------------------------------------------------------------
a------5----5----5--2---------------------------------------------------------
e-----------------------------------------------------------------------------

Verse (x2)
g-----------------------------------------------------------------------------
d--------------------------------------------------------------------5--7----------
a--2-2-2-2-2-2-2-2--0-0-0-0-0-0-0-0------------------2-2-2-2-2-2-2-2--------------
e-----------------------------------0-0-0-0-0-0-0-0---------------------------

Chrous Part 1 (x2)

g-----------------------------------------------------------------------------
d----------------------------------------------------7-------------------------
a-2-2-2-2-2-2-2-2-----------------5-5-5-5-5-5-5---5-----2-2-2-2-2-2-2-2---------
e-----------------0-0-0-0-0-0-0-0----------------------------------------------

Chrous Part 2 

g-----------------------------------------------------------------------------
d------------------7-----7-----7---------7-----7-----7------------------------
a-2-2-2-2-2-2-2-2-----5-----5----5--2-------5-----5-----5--2------------------
e-----------------------------------------------------------------------------

Verse (x2)
g-----------------------------------------------------------------------------
d--------------------------------------------------------------------5-7----------
a--2-2-2-2-2-2-2-2--0-0-0-0-0-0-0-0------------------2-2-2-2-2-2-2-2--------------
e-----------------------------------0-0-0-0-0-0-0-0---------------------------
Chrous Part 1 (x2)
[ Tab from: http://www.guitartabs.cc/tabs/c/chixdiggit/chupacabra_btab_ver_2.html ]
g-----------------------------------------------------------------------------
d----------------------------------------------------7-------------------------
a-2-2-2-2-2-2-2-2-----------------5-5-5-5-5-5-5---5----2-2-2-2-2-2-2-2---------
e-----------------0-0-0-0-0-0-0-0----------------------------------------------

Chrous Part 2 

g-----------------------------------------------------------------------------
d------------------7-----7-----7----------------------7-----7-----7-----------
a-2-2-2-2-2-2-2-2-----5-----5----5--2-2-2-2-2-2-2--------5-----5-----5--2-----
e-----------------------------------------------------------------------------

Guitar Solo (Bridge) - Same as verse, with a few or no variations.


Ends with Chrous (Part 1)

g-----------------------------------------------------------------------------
d----------------------------------------------------7-------------------------
a-2-2-2-2-2-2-2-2-----------------5-5-5-5-5-5-5---5----2-2-2-2-2-2-2-2---------
e-----------------0-0-0-0-0-0-0-0----------------------------------------------

g-----------------------------------------------------------------------------
d----------------------------------------------------7-------------------------
a-2-2-2-2-2-2-2-2-----------------5-5-5-5-5-5-5---5----2-2-2-2----------------
e-----------------0-0-0-0-0-0-0-0----------------------------------------------

g-----------------------------------------------------------------------------
d----7------------7----------------------------------------------------------
a--5---2-2-2-2--5---2-2-2-2-2-2-2-2------------------------------------------
e-----------------------------------------------------------------------------

This is the first tab I made, I was searching my ass around the net for it
Because im not to sure if I can make Bass Tabs, but I'm fairly sure that this
is correct to a certian extent, I have corrected stuff myself, but no doubt,
being my first tab there is probably a few mistakes.
Please let me know by e-mailing me at pantera@vol.net

Niall Polson - Unspoken (aka Downfall) Bassist (http://members.xoom.com/downfall_hk

Comments