Chiodos - The Words Best Friend Become Redefined Chords & Tabs

 

The Words Best Friend Become Redefined Chords & Tabs

Chiodos Chords & Tabs

Version: 2 Type: Tab

The Words Best Friend Become Redefined Tab

==========The words 'best friend' become redefined ===============
=========================Chiodos==================================
From:  ============All's Well That Ends Well============

===This is the correct way to play this song.  It is quite difficult but once you get 
hang of it then it sounds awesome.======

==Drop D.   of course.


==Intro==
|-------------------------------------------------------------------------|
|-------------------------------------------------------------------------|
|-------------------------------------------------------------------------|
|-------------------------------------------------------------------------|
|-------------------------------------------------------------------------|
|12-0-12-0-12-0-19-0-17-0-17-0-15-0-15-0-14-0-14-0-14-0-15-0-14-0-14-11h14|


|----------------------------------------|
|----------------------------------------|
|-7-------10-------9-------6-------------|
|-x--X12--x--X4----x--X8---x--X8---------|
|-5-------8--------7-------4-------------|
|----------------------------------------|
                                          \
                                           --Play Twice
                                          /
|----------------------------------------|
|----------------------------------------|
|-7-------10-------9-------10------9-----|
|-x--X12--x--X4----x--X8---x--X4---x--X4-|
|-5-------8--------7-------8-------7-----|
|----------------------------------------|

===Piano plays in background====

"I've been hiding in this bed for weeks from this
Throats raw from screaming and I haven't said a word
The sky is calling, and the stars they point to this"

To a chair we see your breath in the air, but only for a little while
Your cold pale skin and tainted purple lips
Let me embrace you with this kiss
And together we'll float like angels
Together... together we will float, like, angels.......


====Solo

[ Tab from: http://www.guitartabs.cc/tabs/c/chiodos/the_words_best_friend_become_redefined_tab_ver_2.html ]
|-----------------------------------------------------------------------|
|-----------------------------------------------------------------------|
|19~-17-19~-21-15~-15~-14~-12-14~-15~-17~-19~~~-------------------------|
|-----------------------------------------------------------------------|
|-----------------------------------------------------------------------|
|-----------------------------------------------------------------------|
Very fast picking
|-----10-----13-----17-----13-----15-----17-----------------------------|
|-----10-----15-----18-----15-----17-----18-----------------------------|
|-----------------------------------------------------------------------|
|-----------------------------------------------------------------------|
|-----------------------------------------------------------------------|
|-----------------------------------------------------------------------|

==Higher than the heavens, the clouds part ways
'Promise me to never look down!' and we'll stay like this forever....

==Simple but Sweet break down

|-----------------------------------------------------------------------|
|-----------------------------------------------------------------------|
|-----------------------------------------------------------------------|
|--0-0--0-0--0-0----0-0--0-0--0-0----0-0--0-0--0-0----0-0--0-0--0-0-----|
|--0-0--0-0--0-0----0-0--0-0--0-0----0-0--0-0--0-0----0-0--0-0--0-0-----|
|--0-0--0-0--0-0----0-0--0-0--0-0----0-0--0-0--0-0----0-0--0-0--0-0-----|

===If your stomach feels weak than my work here is   DONE!

|-----10--------10-----10---------10-------------------------------------|
|------9---------9------9---------9--------------------------------------|
|------9---------9------9---------9--------------------------------------|
|--0-0--0-0--0-0----0-0--0-0--0-0----------------------------------------|
|--0-0--0-0--0-0----0-0--0-0--0-0----------------------------------------|
|--0-0--0-0--0-0----0-0--0-0--0-0----------------------------------------|


-----------------------------------|To hide from our twisted ways, I've
been hiding in this bed
Been hiding in this bed for weeks--|

now for the outro wich is not that important but here it is

there are 2 ways to play this...the easy way wich sounds ok but not correct.. or the 
way wich is sort of harder but sounds perfect..

the tabs are

|16----16--|
|--15----15|
|----------|
|----------|
|----------|
|----------|

now you can play this normal with the pick
or to get it right use no pick and just push down on the strings.  but to avoid the open 
when you let off the string... using your other hand  mute the string after your other 
lets off  so when your press down on the 16   using your other hand mute the 15 than
you just let go and so forfth.

well there you  have it...enjoy...

any questions comments or hate mail...send to Sk8WrL909@aol.com

~Ronaldo the Great