Chiodos - No Hardcore Dancing In The Livingroom Chords & Tabs

 

No Hardcore Dancing In The Livingroom Chords & Tabs

Chiodos Chords & Tabs

Version: 1 Type: Tab

No Hardcore Dancing In The Livingroom Tab

   
       =========================Chiodos============================
================No hardcore dancing in the living room==================
       ================Alls Well that Ends Well====================

This is one of the sweetest songs on the cd because the entire thing is practicly one sweet breakdown.
Tuning:Drop D
some parts are quite difficult

      =  =  =  =  =  = ======Intro====== =  =  =  =  =  =  =
 Repeat 3 times
|------------------------------------------------------------------|
|-10------------------------------11-------------------------------|
|------------------------------------------------------------------|
|------------------------------------------------------------------|
|-8-----7----5-----8----7---57----10----8----7----10----8--78------|
|---00----00---00----00---0----------00---00---00----00---0--------|


|------------------------------------------------------------------|
|-10------------------------------11-------------------------------|
|------------------------------------------------------------------|
|------------------------------------------------------------------|
|-8-----7----5-----8----7---57----10----8----7----10---12--8-10----|
|---00----00---00----00---0----------00---00---00----00---0--------|


|------------------------------------------------------------------|
|------------------------------------------------------------------|
|10--99--77-10-9-7-9--12-10-9--12-10--9-10-------------------------|
|xx--xx--xx--x-x-x-x---x--x-x---x--x--x--x-------------------------|
|88--77--55--8-7-5-7--10--8-7--10--8--7--8-------------------------|
|------------------------------------------------------------------|


1:17
breakdown #1 plays twice then a couple times through background
|------------------------------------------------------------------|
|------------------------------------------------------------------|
|----10-----------10---------10------12---------14-----------------|
|-00---8-7-8-000-----7-0-00----8-7-8---11-10-11----13-12-----------|
|-00---------000---------00----------------------------------------|
|-00---------000---------00----------------------------------------|

part2
|------------------------------------------------------------------|
|--99-15-15-15-15-15-15-14-----------------------------------------|
|------------------------------------------------------------------|
|------------------------------------------------------------------|
|------------------------------------------------------------------|
|------------------------------------------------------------------|

fast tremelo picking.
|----1313-----1515-----1717-------1818-----------------------------|
|----1515-----1717-----1818-------2020-----------------------------|
|------------------------------------------------------------------|
|-00------000-------00-------000-----------------------------------|
|-00------000-------00-------000-----------------------------------|
|-00------000-------00-------000-----------------------------------|
[ Tab from: http://www.guitartabs.cc/tabs/c/chiodos/no_hardcore_dancing_in_the_livingroom_tab.html ]
piano....
"shredded by state lines"
..............
baby...this wont get any easier
|---1-----11-----0-----00-----1------11-------0------00------------|
|---3-----33-----2-----22-----3------33-------2------22------------|
|---2-----22-----2-----22-----2------22-------2------22------------|
|-0---000------0---000-----0----000------0-------000---------------|
|-0---000------0---000-----0----000------0-------000---------------|
|-0---000------0---000-----0----000------0-------000---------------|
play twice

|------------------------------------------------------------------|
|------------------------------------------------------------------|
|-101010--14-14---15-15-14-14-15-15-14-14--17-17-------------------|
|--xxxxx---x--x----x--x--x--x--x--x--x--x---x--x-------------------|
|--88888--12-12---13-13-12-12-13-13-12-12--15-15-------------------|
|------------------------------------------------------------------|

then
|------------------------------------------------------------------|
|------------------------------------------------------------------|
|10101010--14-14---------------------------------------------------|
|-x-x-x-x---x--x-----00-0000---33-3333---888888-1010101010---------|
|-8-8-8-8--12-12-----00-0000---33-3333---888888-1010101010---------|
|--------------------00-0000---33-3333---888888-1010101010---------|
                     .. ....   .. ....
strum freely with all but low E open
|-0--0--0--0--0--0--0--0--0--0--0--0--0--0--0--0--0--0--0--0--0--0-|
|-0--0--0--0--0--0--0--0--0--0--0--0--0--0--0--0--0--0--0--0--0--0-|
|-0--0--0--0--0--0--0--0--0--0--0--0--0--0--0--0--0--0--0--0--0--0-|
|-0--0--0--0--0--0--0--0--0--0--0--0--0--0--0--0--0--0--0--0--0--0-|
|-0--0--0--0--0--0--0--0--0--0--0--0--0--0--0--0--0--0--0--0--0--0-|
|------------------------------------------------------------------|

Do some pick slides on the upper strings to get the cool sound effects from the song.
then..

|-1-1---1-1----1----0-0-----0-0----0-----3-3---3-3---3---5-5---5-5---5|
|-3-3---3-3----3----1-1-----1-1----1-----5-5---5-5---5---6-6---6-6---6|
|---------------------------------------------------------------------|
|0-----0------0----0------0------0----0------0-----0---0-----0-----0--|
|0-----0------0----0------0------0----0------0-----0---0-----0-----0--|
|0-----0------0----0------0------0----0------0-----0---0-----0-----0--|
 .     .      .    .      .      .    .      .     .   .     .     .
|55-----55-----55-----55-44-------------------------------------------|
|66-----66-----66-----66-55-------------------------------------------|
|77-----77-----77-----77-66-------------------------------------------|
|---000----000----000-------------------------------------------------|
|---000----000----000-------------------------------------------------|
|---000----000----000-------------------------------------------------|

repeat that a couple times and your done..
hard song but good song.

fun to play.

and comments or hate mail send to Sk8WrL909@aol.com

~RonaldotheGreat
E>