Chiodos - No Hardcore Dancing In The Living Room Chords & Tabs

 

No Hardcore Dancing In The Living Room Chords & Tabs

Chiodos Chords & Tabs

Version: 1 Type: Tab

No Hardcore Dancing In The Living Room Tab

   
----------------------------------------------------------------------------
            No Hardcore Dancing In The Living Room -Chiodos
----------------------------------------------------------------
Tabbed by: Chiodosss any probs. im me at xsaosinx06
Email:erebus@adelphia.net

I dont have the amount of times to play each part or the melody so ur gonna
have to listen to the song to figure it out.

Tuning:D A D G B e

      CLEAN
e|----------------------------------------------------------------------------|
B|----------------------------------------------------------------------------|
G|----------------------------------------------------------------------------|
D|------5---------------------------------7-----------------------------------|
A|------7----5--4--7--5--4--4h5-----------9---7---6---9---7--6h7--------------|
D|----------------------------------------------------------------------------|

   DISTORTION
e|----------------------------------------------------------------------------|
B|----------------------------------------------------------------------------|
G|-----7---5---4----7---5--4/5--------9---7---6---9---7---6/7-----------------|(1 time)
D|----------------------------------------------------------------------------|
A|-----5---3---2----5---3--2/3--------7---5---4---7---5---4/5-----------------|
D|----------------------------------------------------------------------------|

e|----------------------------------------------------------------------------|
B|----------------------------------------------------------------------------|
G|-----7---5---4---7---5---4/5--------9---7---6----777---999---1010-----------|(1 time)
D|----------------------------------------------------------------------------|
A|-----5---3---2---5---3---2/3--------7---5---4----555---777----8-8-----------|
D|----------------------------------------------------------------------------|


(This played in the verse also by guitar 1)
e|------------------------------------------------------------7-8-9-10----|
B|---------------------------------------------------7-8-9-10-------------|
G|--------7-8-9-10-------10-9-8-----------7-8-9-10------------------------|
D|------------------------------------------------------------------------|
A|--00--------------00--------------00------------------------------------|
D|--00--------------00--------------00------------------------------------|
    **              **              **   (repeat a couple of times)

e|-------------------------------------------------------------------------|
B|-------------------------16-----------------------------15h16-17h18--20--|
G|--------12-13-14-15-------------------12-13-14-15------------------------|
D|-------------------------------------------------------------------------|
A|--00-------------------------------00------------------------------------|
D|--00-------------------------------00------------------------------------|
    **                               **    (repeat a couple of times)
[ Tab from: http://www.guitartabs.cc/tabs/c/chiodos/no_hardcore_dancing_in_the_living_room_tab.html ]
        Verse Guitar 2
e|--------------------------------------------------------------------|
B|--------------------------------------------------------------------|
G|-------77--88--99--1010--1010--99--88-88----------------------------|
D|--------------------------------------------------------------------|
A|-------55--66--77---8-8--8-8---77--66-66----------------------------|
D|--------------------------------------------------------------------|

(Baby this wont get any easier)
e|-----------------------|
B|----------6--------66--|(repeat a couple a times then
G|----------9--------99--|
D|-----------------------|
A|----00--------000------|
D|----00--------000------|
      **        ***
e|----------------------------------------------------------------------|
B|---------6------7-----8---------(repeat a couple times)---------------|
G|---------9------10----11----------------------------------------------|
D|----------------------------------------------------------------------|
A|----00----------------------------------------------------------------|
D|----00----------------------------------------------------------------|
      **
e|----------------------------------------------------------------|
B|----------------------------------------------------------------|
G|--xxx---555555----9---99999----10/9-10/9----7777777-------------|
D|----------------------------------------------------------------|
A|--xxx---333333----7---77777-----8/7-8/7-----5555555-------------|
D|----------------------------------------------------------------|

(dont let this die we may never fall in love again)
e|------------------------------------------------------------------------|
B|------------------------------------------------------------------------|
G|-----55555---7---99999--10/9---------------------10/9-10/9---7--555555--|
D|------------------------------------------------------------------------|
A|-----33333---5---77777---8/7---77--777--77--777---8/7--8/7---5--333333--|
D|-------------------------------77--777--77--777-------------------------|
                                   **  ***  **  ***
e|---------10--|
B|---------9---|(just scratch around this to get the sound from the song)
G|---------7---|
D|---------0---|
A|-------------|
D|-------------|

e|----------------------------------------------------------------------------|
B|---------66-66-6---7--7--7-7--7----8-8--8-8--8----9-9--9-9-9----------------|
G|---------99-99-9---1010-1010-10---1111-1111-11---1212-1212-12---------------|
D|----------(kinda bend these a little)---------------------------------------|
A|----------------------------------------------------------------------------|
D|----------------------------------------------------------------------------|

e|----------------------------------------------------------------------------|
B|-------------55---------7-7----------55---------7-7--1010-1111--------------|
G|-------------88---------1010---------88---------1010-1313-1414--------------|
D|----------------------------------------------------------------------------|
A|-----------------000------------000---------000-----------------------------|
D|-----------------000------------000---------000-----------------------------|
                   ***            ***         ***
| /  slide up
| \  slide down
| h  hammer-on
| p  pull-off
| ~  vibrato
| +  harmonic
| x  Mute note
===============================================================================