Chiodos - Expired In Goreville Chords & Tabs

 

Chiodos Chords & Tabs

Version: 1 Type: Tab 0 ratings
1 star 2 stars 3 stars 4 stars 5 stars
comments

Expired In Goreville Tab

   
#----------------------------------PLEASE NOTE---------------------------------#
#This file is the author's own work and represents their interpretation of the #
#song. You may only use this file for private study, scholarship, or research. #
#------------------------------------------------------------------------------#

EXPIRED IN GOREVILLE
As recorded by Chiodos
(From the 2005 Album ALL'S WELL THAT ENDS WELL)


Transcribed by Lostmotel

 Words by Craig Owens and Bradley Bell Music by Chiodos (Craig Owens, Bradley Bell,
Pat McManaman, Matt Goddard, Jason Hale, Derrick Frost)
Arranged by Chiodos (Craig Owens, Bradley Bell, Pat McManaman, Matt Goddard, Jason
Hale, Derrick Frost)Chiodos (Craig Owens, Bradley Bell, Pat McManaman, Matt Goddard,
Jason Hale, Derrick Frost)
 

Gtr I (D A D G B E) - 'Pat'
Gtr II (D A D G B E) - 'Jason'
Gtr III (D A D G B E) - 'Brad'
Gtr IV (D A D G B E) - 'Ocean Sounds'


 Intro
  Q=120
  D
4/4
  Gtr IV
  <
  W          +W           W          +W
|----------|------------|----------|--------|
|----------|------------|----------|--------|
|-7--------|-(7)--------|-7--------|-(7)----|
|----------|------------|----------|--------|
|-5--------|-(5)--------|-5--------|-(5)----|
|-0--------|-(0)--------|-0--------|-(0)----|


    W          +W           W          +W      3x
||-----------|------------|----------|---------||
||o----------|------------|----------|--------o||
||--7--------|-(7)--------|-7--------|-(7)-----||
||-----------|------------|----------|---------||
||o-5--------|-(5)--------|-5--------|-(5)----o||
||--0--------|-(0)--------|-0--------|-(0)-----||


  D5
                                                   3/4
  Gtr I
  W          +W           +W           +W           +H.
|----------|------------|------------|------------|--------|
|----------|------------|------------|------------|--------|
|-2--------|-(2)--------|-(2)--------|-(2)--------|-(2)----|
|-0--------|-(0)--------|-(0)--------|-(0)--------|-(0)----|
|-0--------|-(0)--------|-(0)--------|-(0)--------|-(0)----|
|-0--------|-(0)--------|-(0)--------|-(0)--------|-(0)----|
|
| Gtr II
| W          +W           +W           +W           +H.
|----------|------------|------------|------------|--------|
|----------|------------|------------|------------|--------|
|-7--------|-(7)--------|-(7)--------|-(7)--------|-(7)----|
|----------|------------|------------|------------|--------|
|-5--------|-(5)--------|-(5)--------|-(5)--------|-(5)----|
|-0--------|-(0)--------|-(0)--------|-(0)--------|-(0)----|


  D5
4/4
  W          +W           +W              +W
|----------|------------|--------------|---------|
|----------|------------|--------------|---------|
|-2--------|-(2)--------|-(2)----------|--(2)----|
|-0--------|-(0)--------|-(0)----------|--(0)----|
|-0--------|-(0)--------|-(0)----------|--(0)----|
|-0--------|-(0)--------|-(0)----------|--(0)----|
|
| W          +W           +W              +W
|----------|------------|--------------|---------|
|----------|------------|--------------|---------|
|-7--------|-(7)--------|-(7)----------|--(7)----|
|----------|------------|--------------|---------|
|-5--------|-(5)--------|-(5)----------|--(5)----|
|-0--------|-(0)--------|-(0)----------|--(0)----|
|
| Gtr III
| W           W            H      H       +W
|----------|------------|-22-----17----|-(17)----|
|----------|------------|--------------|---------|
|----------|------------|-19-----------|---------|
|----------|------------|--------------|---------|
|----------|------------|--------------|---------|
|----------|------------|--------------|---------|


  +W            +W
|------------|---------||
|------------|---------||
|-(2)--------|--(2)----||
|-(0)--------|--(0)----||
|-(0)--------|--(0)----||
|-(0)--------|--(0)----||
|
| +W            +W
|------------|---------||
|------------|---------||
|-(7)--------|--(7)----||
|------------|---------||
|-(5)--------|--(5)----||
|-(0)--------|--(0)----||
|
| Gtr III
|  W            +W
|------------|---------||
|------------|---------||
|-14---------|-(14)----||
|------------|---------||
|------------|---------||
|------------|---------||


   Verse
    Q=198
    D5                  Bb5
    Gtr I
    PM---------------------------------------
    E E  E E E E  E E   E E  E E E E  E   E
||--------------------|---------------------|
||o-------------------|---------------------|
||--------------------|---------------------|
||-------0--------0---|------8--------8-----|
||o-0-0--0-0-0-0--0-0-|-8-8--8-8-8-8--8---8-|
||--0-0--0-0-0-0--0-0-|-8-8--8-8-8-8--8---8-|
|
|   Gtr II
|   E E  E E E E  E E   E E  E E E E  E   E
||--------------------|---------------------|
||o-------------------|---------------------|
||--x-x-14-x-x-x-14-x-|-x-x-12-x-x-x-10-/12-|
||--x-x--x-x-x-x--x-x-|-x-x--x-x-x-x--x-----|
||o-x-x-12-x-x-x-12-x-|-x-x-10-x-x-x--8-/10-|
||--------------------|---------------------|
|
|   Gtr III
|   W                   W
||--5-----------------|-6-------------------|
||o-------------------|---------------------|
||--------------------|---------------------|
||--------------------|---------------------|
||o-------------------|---------------------|
||--------------------|---------------------|


  C5                        Bb5       A5
-------------------------------------------|
   E  E  E  E  E  E  E  E    E E  E E E E E E
|-------------------------|---------------------||
|-------------------------|--------------------o||
|-------------------------|---------------------||
|-------10----------10----|-------8-------7-----||
|-10-10-10-10-10-10-10-10-|--8-8--8-8-7-7-7-7--o||
|-10-10-10-10-10-10-10-10-|--8-8--8-8-7-7-7-7---||
|
|  E  E  E  E  E  E  E  E    E E  E E E E E E
|-------------------------|---------------------||
|-------------------------|--------------------o||
|--x--x-12--x--x--x-12--x-|-10-x-10-x-9-x-9-x---||
|--x--x--x--x--x--x--x--x-|--x-x--x-x-x-x-x-x---||
|--x--x-10--x--x--x-10--x-|--8-x--8-x-7-x-7-x--o||
|-------------------------|---------------------||
|
|  W                         W
|--8----------------------|--9------------------||
|-------------------------|--------------------o||
|-------------------------|---------------------||
|-------------------------|---------------------||
|-------------------------|--------------------o||
|-------------------------|---------------------||


    $
    N.C. D5
                   PM                       PM
     Q   E  E  +E  E  E  E    Q   E  E  +E  E  E  E
||-------------------------|------------------------|
||o------------------------|------------------------|
||--14---------------10-14-|-14---------------10-14-|
||---x----------------x--x-|--x----------------x--x-|
||o-12---0--0--(0)-0--8-12-|-12---0--0--(0)-0--8-12-|
||-------0--0--(0)-0-------|------0--0--(0)-0-------|
|
|                  PM                       PM
|    Q   E  E  +E  E  E  E    Q   E  E  +E  E  E  E
||-------------------------|------------------------|
||o------------------------|------------------------|
||--14---------------10-14-|-14---------------10-14-|
||---x----------------x--x-|--x----------------x--x-|
||o-12---0--0--(0)-0--8-12-|-12---0--0--(0)-0--8-12-|
||-------0--0--(0)-0-------|------0--0--(0)-0-------|
|
|    Q.     Q.        Q       Q.     Q.        Q
||---------22--------------|--------22--------------|
||o--------22--------------|--------22--------------|
||--19---------------19----|-19---------------19----|
||-------------------------|------------------------|
||o------------------------|------------------------|
||-------------------------|------------------------|


                                        To Coda
                          Bb5         A5
                 PM----------------------------|
   Q   E  E  +E  E  E E    E  E  E  E  E  E  E  E
|-----------------------|---------------------------||
|-----------------------|--------------------------o||
|-14--------------------|---------------------------||
|--x--------------------|---------------------------||
|-12---0--0--(0)-0--0-0-|--8--8--8--8--7--7--7--7--o||
|------0--0--(0)-0--0-0-|--8--8--8--8--7--7--7--7---||
|
|                PM----------------------------|
|  Q   E  E  +E  E  E E    E  E  E  E  E  E  E  E
|-----------------------|---------------------------||
|-----------------------|--------------------------o||
|-14--------------------|---------------------------||
|--x--------------------|---------------------------||
|-12---0--0--(0)-0--0-0-|--8--8--8--8--7--7--7--7--o||
|------0--0--(0)-0--0-0-|--8--8--8--8--7--7--7--7---||
|
|  Q.     Q.        Q      E  E  E  E  E  E  E  E
|--------22-------------|-18-17-15------------------||
|--------22-------------|----------18-17-15--------o||
|-19---------------19---|-------------------17-15---||
|-----------------------|---------------------------||
|-----------------------|--------------------------o||
|-----------------------|---------------------------||


Chorus
  Q=99
  D5             C5       Bb5   D5             C5       Bb5
   PM----------------------------------------------------------
   E  E  S  E     E  E  S  Q     E  E  S  E     E  E  S  Q
|-----------------------------|-------------------------------|
|-----------------------------|-------------------------------|
|--7--7--7--7-----5--5--5--3--|--7--7--7--7-----5--5--5--3----|
|--7--7--7--7-----5--5--5--3--|--7--7--7--7-----5--5--5--3----|
|--5--5--5--5-----3--3--3--1--|--5--5--5--5-----3--3--3--1----|
|-----------------------------|-------------------------------|
|
|                          ~~
|  E  E  S  E     E  E  S  Q     E  E  S  E     E  E  S  E  E
|-----------------------------|----------------------------10-|
|-------10-11----------11-10--|-------10-11----------11-10----|
|--7--9-----------7--9--------|--7--9-----------9--9----------|
|-----------------------------|-------------------------------|
|-----------------------------|-------------------------------|
|-----------------------------|-------------------------------|
|
|                          ~~                            ~~
|  E  E  E     S  E  E  S  Q     E  E  E     S  E  E  S  Q
|-10-12-13----12-15-15-15-13--|-10-12-13----12-17-17-18-17----|
|-----------------------------|-------------------------------|
|-----------------------------|-------------------------------|
|-----------------------------|-------------------------------|
|-----------------------------|-------------------------------|
|-----------------------------|-------------------------------|


  D5             C5       Bb5   D5             C5       Bb5
-------------------------------------------------------|
   E  E  S  E     E  E  S  Q     E  E  S  E     E  E  S  Q
|-----------------------------|--------------------------------||
|-----------------------------|--------------------------------||
|--7--7--7--7-----5--5--5--3--|--7--7--7--7-----5--5--5--3-----||
|--7--7--7--7-----5--5--5--3--|--7--7--7--7-----5--5--5--3-----||
|--5--5--5--5-----3--3--3--1--|--5--5--5--5-----3--3--3--1-----||
|-----------------------------|--------------------------------||
|
|                          ~~
|  E  E  S  E     E  E  S  Q     E  E  S  E     E  E  S  E  E
|-----------------------------|----------------------------10--||
|-------10-11----------11-10--|-------10-11----------11-10-----||
|--7--9-----------7--9--------|--7--9-----------9--9-----------||
|-----------------------------|--------------------------------||
|-----------------------------|--------------------------------||
|-----------------------------|--------------------------------||
|
|                          ~~                            ~~
|  E  E  E     S  E  E  S  Q     E  E  E     S  E  E  S  Q
|-10-12-13----12-15-15-15-13--|-10-12-13----12-17-17-18-17-----||
|-----------------------------|--------------------------------||
|-----------------------------|--------------------------------||
|-----------------------------|--------------------------------||
|-----------------------------|--------------------------------||
|-----------------------------|--------------------------------||


Interlude
  Q=198
  D5
    W            +W
|-------------|-------------|
|-------------|-------------|
|---7---------|--(7)--------|
|---7---------|--(7)--------|
|---5---------|--(5)--------|
|-------------|-------------|
|
|   W            +W
|-------------|-------------|
|-------------|-------------|
|-------------|-------------|
|---0---------|--(0)--------|
|---0---------|--(0)--------|
|---0---------|--(0)--------|
|
|   >
|  +W            +W
|-(17)--------|-(17)--------|
|-------------|-------------|
|-------------|-------------|
|-------------|-------------|
|-------------|-------------|
|-------------|-------------|


  Bb5                                C5
    E  E E +E  E E E  E    +E   E  E   Q    E  E  E
|-----------------------|---------------------------|
|-----------------------|---------------------------|
|-----------------------|---------------------------|
|---7--7-7-(7)-7-7-7-10-|-(10)-10-10--10---10-10-10-|
|---7--7-7-(7)-7-7-7-10-|-(10)-10-10--10---10-10-10-|
|---7--7-7-(7)-7-7-7-10-|-(10)-10-10--10---10-10-10-|
|
|   E  E E +E  E E E  E    +E   E  E   Q    E  E  E
|-----------------------|---------------------------|
|-----------------------|---------------------------|
|--------------------10-|-(10)-10-10---9----9--9--9-|
|---7--7-7-(7)-7-7-7--x-|--(x)--x--x---x----x--x--x-|
|---7--7-7-(7)-7-7-7--8-|--(8)--8--8---7----7--7--7-|
|---7--7-7-(7)-7-7-7----|---------------------------|
|
|  +W                       H            Q     Q
|-(17)------------------|---------------------------|
|-----------------------|---6------------5-----5----|
|-----------------------|---------------------------|
|-----------------------|---------------------------|
|-----------------------|---------------------------|
|-----------------------|---------------------------|

[ Tab from: http://www.guitartabs.cc/tabs/c/chiodos/expired_in_goreville_tab.html ]
Verse
  D5                                    Bb5          F5            C5
  Gtrs I, II
  PM----------|           PM  PM  PM    PM-------------|     PM------------|
  E E E E E E E E    E  E E E E E E E   E E E  E E E E E   E E E E  E E  E E
|-----------------|-------------------|------------------|-------------------|
|-----------------|-------------------|------------------|-------------------|
|-----------------|-------------------|------------------|-------------------|
|-----------------|-------------------|------------------|-------------------|
|-0-0---0-0---0-0-|-----0-0---0---0---|-8-8----8-8---3-3-|---3-3---10---10---|
|-0-0---0-0---0-0-|-----0-0---0---0---|-8-8----8-8---3-3-|---3-3---10---10---|
|
| Gtr III
| W                 +Q    q   Q   q     Q   H.             H        Q    Q
|-----------------|-------------------|------------------|-------------------|
|-----------------|-------5-------6---|-----8------------|----------5----5---|
|-7---------------|-(7)---------------|------------------|-6-----------------|
|-----------------|-------------------|------------------|-------------------|
|-----------------|-------------------|------------------|-------------------|
|-----------------|-------------------|------------------|-------------------|


  D5                                    Bb5          F5            C5
  PM----------|         PM-----------------------------|     PM------------|
  E E E E E E E E    E  E E E E E E E   E E E  E E E E E   E E E E  E E  E E
|-----------------|-------------------|------------------|-------------------|
|-----------------|-------------------|------------------|-------------------|
|-----------------|-------------------|------------------|-------------------|
|-----------------|-------------------|------------------|-------------------|
|-0-0---0-0---0-0-|-----0-0---0---0---|-8-8----8-8---3-3-|---3-3---10---10---|
|-0-0---0-0---0-0-|-----0-0---0---0---|-8-8----8-8---3-3-|---3-3---10---10---|
|
| W                 +Q    q   Q   q     Q   H.             H        Q    Q
|-----------------|-------------------|------------------|-------------------|
|-----------------|-------5-------6---|-----8------------|----------5----5---|
|-7---------------|-(7)---------------|------------------|-6-----------------|
|-----------------|-------------------|------------------|-------------------|
|-----------------|-------------------|------------------|-------------------|
|-----------------|-------------------|------------------|-------------------|


  D5
  PM----------|         PM---------------
  E E E E E E E E    E  E E E  E  E E E
|-----------------|---------------------|
|-----------------|---------------------|
|-----------------|---------------------|
|-----------------|---------------------|
|-0-0---0-0---0-0-|-----0-0----0----0---|
|-0-0---0-0---0-0-|-----0-0----0----0---|
|
| W                 +Q    Q   +Q    Q
|-----------------|---------------------|
|-----------------|-------5---(5)---6---|
|-7---------------|-(7)-----------------|
|-----------------|---------------------|
|-----------------|---------------------|
|-----------------|---------------------|


  Bb5            F5            C5
------------------|     PM------------|
   E  E E  E E E E E   E E E E  E E  E E
|--------------------|-------------------|
|--------------------|-------------------|
|--------------------|-------------------|
|--------------------|-------------------|
|--8--8----8-8---3-3-|---3-3---10---10---|
|--8--8----8-8---3-3-|---3-3---10---10---|
|
| +Q    H.             H        Q    Q
|--------------------|-------------------|
|-(6)---8------------|----------5----5---|
|--------------------|-6-----------------|
|--------------------|-------------------|
|--------------------|-------------------|
|--------------------|-------------------|


    D5                  Bb5
    Gtr I
    PM-----------------------------------------
    E E  E E E E  E E    E  E  E E E E  E   E
||--------------------|-----------------------|
||o-------------------|-----------------------|
||--------------------|-----------------------|
||-------0--------0---|--------8--------8-----|
||o-0-0--0-0-0-0--0-0-|--8--8--8-8-8-8--8---8-|
||--0-0--0-0-0-0--0-0-|--8--8--8-8-8-8--8---8-|
|
|   Gtr II
|   E E  E E E E  E E    E  E  E E E E  E   E
||--------------------|-----------------------|
||o-------------------|-----------------------|
||--x-x-14-x-x-x-14-x-|--x--x-12-x-x-x-10-/12-|
||--x-x--x-x-x-x--x-x-|--x--x--x-x-x-x--x-----|
||o-x-x-12-x-x-x-12-x-|--x--x-10-x-x-x--8-/10-|
||--------------------|-----------------------|
|
|   Gtr III
|   W                   +W
||--------------------|-----------------------|
||o-------------------|-----------------------|
||--7-----------------|-(7)-------------------|
||--------------------|-----------------------|
||o-5-----------------|-(5)-------------------|
||--------------------|-----------------------|


                                 D.S. al Coda
  C5                         Bb5       A5
--------------------------------------------|
   E   E  E  E  E  E  E  E    E E  E E E E E E
|--------------------------|---------------------||
|--------------------------|--------------------o||
|--------------------------|---------------------||
|--------10----------10----|-------8-------7-----||
|-10--10-10-10-10-10-10-10-|--8-8--8-8-7-7-7-7--o||
|-10--10-10-10-10-10-10-10-|--8-8--8-8-7-7-7-7---||
|
|  E   E  E  E  E  E  E  E    E E  E E E E E E
|--------------------------|---------------------||
|--------------------------|--------------------o||
|--x---x-12--x--x--x-12--x-|-10-x-10-x-9-x-9-x---||
|--x---x--x--x--x--x--x--x-|--x-x--x-x-x-x-x-x---||
|--x---x-10--x--x--x-10--x-|--8-x--8-x-7-x-7-x--o||
|--------------------------|---------------------||
|
| +W                          q    q   q   q
|--------------------------|--3----3---3---3-----||
|--------------------------|--7----7---7---7----o||
|-(7)----------------------|---------------------||
|--------------------------|---------------------||
|-(5)----------------------|--------------------o||
|--------------------------|---------------------||


Bridge
                     Q=99
  &
  Bb5                  D5
               2/4    4/4
  Gtr I
  E E H.        H      W          +W
|-------------|------|----------|-------------------|
|-------------|------|----------|-------------------|
|-------------|------|----------|-------------------|
|-------------|------|----------|-------------------|
|-8-8---------|------|-4--------|-(4)---------------|
|-8-8---------|------|-0--------|-(0)---------------|
|
| Gtr II
| E E H.        H      W           E  E E E E E E E
|-------------|------|----------|-------------------|
|-------------|------|----------|-----0---0---0---0-|
|-------------|------|-2--------|--3----3---3---3---|
|-------------|------|-0--------|-------------------|
|-8-8---------|------|-0--------|-------------------|
|-8-8---------|------|-0--------|-------------------|


  +W                  +W
|-------------------|-------------------|
|-------------------|-------------------|
|-------------------|-------------------|
|-------------------|-------------------|
|-(4)---------------|-(4)---------------|
|-(0)---------------|-(0)---------------|
|
|  E  E E E E E E E    E  E E E E E E E
|-------------------|-------------------|
|-----0---0---0---0-|-----0---0---0---0-|
|--2----2---2---2---|--3----3---3---3---|
|-------------------|-------------------|
|-------------------|-------------------|
|-------------------|-------------------|


  +W                  +W
|-------------------|-------------------||
|-------------------|-------------------||
|-------------------|-------------------||
|-------------------|-------------------||
|-(4)---------------|-(4)---------------||
|-(0)---------------|-(0)---------------||
|
|  E  E E E E E E E    E  E E E E E E E
|-------------------|-------------------||
|-----0---0---0---0-|-----0---0---0---0-||
|--2----2---3---3---|--2----2---3---3---||
|-------------------|-------------------||
|-------------------|-------------------||
|-------------------|-------------------||


Breakdown
  D5             D5C     D5      C    D5C     D5             C
                 PM      PM----|      PM      PM----------|
  H.      Q      E  E  E E E E E  E   E  E  E E   E     E  E  E  3x
|------------||----11-11----------7-|---11-11-----------------7--||
|------------||o---10-10---------11-|---10-10----------------11-o||
|-2----------||---------------------|----------------------------||
|-0----------||---------------------|----------------------------||
|-0----------||o-0-------0-0-0-0----|-0-------0---0-----0--0----o||
|-0----------||--0-------0-0-0-0----|-0-------0---0-----0--0-----||
|
|                PM      PM----|      PM      PM
| H.      Q      E  E  E E E E E  E   E  E  E E   S  S  E  E  E  3x
|------------||-------------------6-|----------------------------||
|------------||o----7--7---------10-|----7--7----/7s=8--8s10-10-o||
|-2----------||----10-10------------|---10-10---/10s11-11s13-13--||
|-0----------||---------------------|----------------------------||
|-0----------||o-0-------0-0-0-0----|-0-------0-----------------o||
|-0----------||--0-------0-0-0-0----|-0-------0------------------||


  D5C     D5      C    D5C     D5
  PM      PM----|      PM      PM----------|
  E  E  E E E E E  E   E  E  E E   E     E  q
|---11-11----------7-|---11-11-----------------|
|---10-10---------11-|---10-10-----------------|
|--------------------|-------------------------|
|--------------------|-------------------------|
|-0-------0-0-0-0----|-0-------0---0-----0--0--|
|-0-------0-0-0-0----|-0-------0---0-----0--0--|
|
| PM      PM----|      PM      PM
| E  E  E E E E E  E   E  E  E E   S  S  E  q
|------------------6-|-------------------------|
|----7--7---------10-|----7--7----/7s=8--8s10--|
|---10-10------------|---10-10---/10s11-11s13--|
|--------------------|-------------------------|
|-0-------0-0-0-0----|-0-------0---------------|
|-0-------0-0-0-0----|-0-------0---------------|


Outro
                                                        Q
  D5             C5       Bb5   D5             C5
   PM------------------------------------------|
   E  E  S  E     E  E  S  Q     E  E  S  E     E Q..
|-----------------------------|-------------------------|
|-----------------------------|-------------------------|
|--7--7--7--7-----5--5--5--3--|--7--7--7--7-----5-------|
|--7--7--7--7-----5--5--5--3--|--7--7--7--7-----5-------|
|--5--5--5--5-----3--3--3--1--|--5--5--5--5-----3-------|
|-----------------------------|-------------------------|
|
|                          ~~
|  E  E  S  E     E  E  S  Q     E  E  S  E     E Q..
|-----------------------------|-------------------------|
|--------9-10----------11-10--|--------9-10-------------|
|--7--9-----------7--9--------|--7--9-----------9-------|
|-----------------------------|-------------------------|
|-----------------------------|-------------------------|
|-----------------------------|-------------------------|
|
| Gtr III
|                          ~~
|  E  E  E     S  E  E  S  Q     E  E  E     S  E Q..
|-10-12-13----12-15-15-15-13--|-10-12-13----12-17-------|
|-----------------------------|-------------------------|
|-----------------------------|-------------------------|
|-----------------------------|-------------------------|
|-----------------------------|-------------------------|
|-----------------------------|-------------------------|


=198
  D5          C5            BbD5
   q   q   q   q     q   q   q   q
|-----------------|------------------|
|-----------------|------------------|
|-----------------|------------------|
|-12--12--12--10--|-10---8--12--12---|
|-12--12--12--10--|-10---8--12--12---|
|-12--12--12--10--|-10---8--12--12---|
|
|  q   q   q   q     q   q   q   q
|-----------------|------------------|
|-----------------|------------------|
|-14--14--14--12--|-12--10--14--14---|
|--x---x---x---x--|--x---x---x---x---|
|-12--12--12--10--|-10---8--12--12---|
|-----------------|------------------|
|
|  W                 W
|-----------------|------------------|
|-----------------|------------------|
|-----------------|------------------|
|-----------------|------------------|
|-----------------|------------------|
|-----------------|------------------|


                                Q=99
      C5      Bb5   D5
   q   q   q   q     q  H.        Wx3
|-----------------|-------------|------------|
|-----------------|-------------|------------|
|-----------------|-------------|------------|
|-12--10--10---8--|-12----------|------------|
|-12--10--10---8--|-12----------|------------|
|-12--10--10---8--|-12----------|------------|
|
|  q   q   q   q     q  H.        Wx3
|-----------------|-------------|------------|
|-----------------|-------------|------------|
|-14--12--12--10--|-14----------|------------|
|--x---x---x---x--|--x----------|------------|
|-12--10--10---8--|-12----------|------------|
|-----------------|-------------|------------|
|
|  W                 W            Wx3
|-----------------|-------------|------------|
|-----------------|-------------|------------|
|-----------------|-------------|------------|
|-----------------|-------------|------------|
|-----------------|-------------|------------|
|-----------------|-------------|------------|


  D5             C5       Bb5
   PM---------------------|
   E  E  S  E     E  E  S  E  S  S
|-----------------------------------*|
|-----------------------------------*|
|-----------------------------------*|
|-12-12-12-12----10-10-10--8--x--x--*|
|-12-12-12-12----10-10-10--8--x--x--*|
|-12-12-12-12----10-10-10--8--x--x--*|
|
|  E  E  S  E     E  E  S  E  E
|----------------------------10\----*|
|-------10-11----------11-10--------*|
|--7--9-----------9--9--------------*|
|-----------------------------------*|
|-----------------------------------*|
|-----------------------------------*|
|
|                          ~~
|  E  E  E     S  E  E  S  Q
|-10-12-13----12-15-15-15-13--------*|
|-----------------------------------*|
|-----------------------------------*|
|-----------------------------------*|
|-----------------------------------*|
|-----------------------------------*|




--------------------------------------------------------------------------------


Duration Legend
---------------
W - whole; H - half; Q - quarter; E - 8th; S - 16th; T - 32nd; X - 64th; a - acciaccatura
+ - note tied to previous; . - note dotted; .. - note double dotted
Uncapitalized letters represent notes that are staccato (1/2 duration)
Irregular groupings are notated above the duration line
Duration letters will always appear directly above the note/fret number it represents the
duration for.  Duration letters with no fret number below them represent rests.  Multi-
bar rests are notated in the form Wxn, where n is the number of bars to rest for.  Low
melody durations appear below the staff

Tablature Legend
----------------
h   - hammer-on
p   - pull-off
b   - bend
pb  - pre-bend
r   - bend release (if no number after the r, then release immediately)
/\  - slide into or out of (from/to "nowhere")
s   - legato slide
S   - shift slide
 - natural harmonic
[n]  - artificial harmonic
n(n) - tapped harmonic
~   - vibrato
tr  - trill
T   - tap
TP  - trem. picking
PM  - palm muting
\n/  - tremolo bar dip; n = amount to dip
\n  - tremolo bar down
n/  - tremolo bar up
/n\  - tremolo bar inverted dip
=   - hold bend; also acts as connecting device for hammers/pulls
<> - volume swell (louder/softer)
x   - on rhythm slash represents muted slash
o   - on rhythm slash represents single note slash

Misc Legend
-----------
|  - bar
||  - double bar
||o - repeat start
o|| - repeat end
*|  - double bar (ending)
:  - bar (freetime)
$  - Segno
&  - Coda
Tempo markers -  = BPM(8/16=s8/s16), where s8 = swing 8ths, s16 = swing 16ths
Comments