Chiodos - All Nerids Beware Chords & Tabs

 

All Nerids Beware Chords & Tabs

Chiodos Chords & Tabs

Version: 1 Type: Tab 0 ratings
1 star 2 stars 3 stars 4 stars 5 stars
comments

All Nerids Beware Tab

   
#----------------------------------PLEASE NOTE---------------------------------#
#This file is the author's own work and represents their interpretation of the #
#song. You may only use this file for private study, scholarship, or research. #
#------------------------------------------------------------------------------#

ALL NEREIDS BEWARE
As recorded by Chiodos
(From the 2005 Album ALL'S WELL THAT ENDS WELL)


Transcribed by LosT.MoteL

 Words and Music by Chiodos

 

Gtr I (D A D G B E) - 'Jason Hale (Distortion)'
Gtr II (D A D G B E) - 'Pat McManaman (Distortion)'
Gtr III (D A D G B E) - 'Brad'
Gtr IV (D A D G B E) - 'Jason Hale (Clean)'
Gtr V (D A D G B E) - 'Pat McManaman (Clean)'


 Intro
  Q=201
       G5       Gm
 1/4  4/4
  Gtr I
        PM---|       PM     PM|         PM     PM---------|
  Q     S  S  E  E   E   E  E  E  E     E   E  E  E  S  S  E  Q
|----|------------------------------|----------------------------|
|----|------------------------------|----------------------------|
|----|------------------------------|----------------------------|
|----|-----------8-------8--------8-|-------8-----------------8--|
|----|-10-10-10-10-(10)-10-10-10-10-|-(10)-10-10-10-10-10-10-10--|
|----|------------------------------|----------------------------|
|
| Gtr II
| Q     W                              +W
|----|------------------------------|----------------------------|
|----|------------------------------|----------------------------|
|----|------------------------------|----------------------------|
|----|--5---------------------------|--(5)-----------------------|
|----|--5---------------------------|--(5)-----------------------|
|----|--5---------------------------|--(5)-----------------------|


  F5    F
  PM--|    PM   PM|      PM     PM
  S S E E  E  E E E E    E  E E E E E E E
|---------------------|-------------------|
|---------------------|-------------------|
|---------------------|-----------7h8p7---|
|-------7-----7-----7-|-----7-----------8-|
|-8-8-8-8-(8)-8-8-8-8-|-(8)-8-8-8---------|
|---------------------|-------------------|
|
| W                     +W
|---------------------|-------------------|
|---------------------|-------------------|
|---------------------|-------------------|
|-3-------------------|-(3)---------------|
|-3-------------------|-(3)---------------|
|-3-------------------|-(3)---------------|


  Eb5   Eb
  PM--|    PM   PM|       PM-|     PM----|
  S S E E  E  E E E  E    E   E  E E S S E Q
|----------------------|----------------------|
|----------------------|----------------------|
|-------------------10-|---------8---------7--|
|-------5-----5------x-|---------x---------5--|
|-6-6-6-6-(6)-6-6-6--8-|--8--(8)-6-6-6-6-6-6--|
|----------------------|----------------------|
|
| W                      +W
|----------------------|----------------------|
|----------------------|----------------------|
|----------------------|----------------------|
|-1--------------------|-(1)------------------|
|-1--------------------|-(1)------------------|
|-1--------------------|-(1)------------------|


  F5    F               F#5
  PM--|    PM   PM|      PM   PM------|
  S S E E  E  E E E E    E  E E E S S E Q
|---------------------|----------------------|
|---------------------|----------------------|
|-------2-----2-----2-|-----2-----------2----|
|-------3-----3-----4-|-----4-----------4----|
|-5-5-5-5-(5)-5-5-5-5-|-(5)-5-5-5-5-5-5-5----|
|---------------------|----------------------|
|
| W                      W
|---------------------|----------------------|
|---------------------|----------------------|
|---------------------|----------------------|
|-3-------------------|--4-------------------|
|-3-------------------|--4-------------------|
|-3-------------------|--4-------------------|


  G5             Gm
   PM------|             PM           PM---|
   S  S     E     E      E      E     E     E     E
|------------------------------------------------------|
|------------------------------------------------------|
|------------------------------------------------------|
|-----------------8-------------8-----------------8----|
|-10-10----10----10----(10)----10----10----10----10----|
|------------------------------------------------------|
|
|  W
|------------------------------------------------------|
|------------------------------------------------------|
|------------------------------------------------------|
|--5---------------------------------------------------|
|--5---------------------------------------------------|
|--5---------------------------------------------------|
|
| Gtr III
|  |----------------------12:8-----------------------|
|  E     E     E  E  E       E  E  E     E  E  E     E
|-15----13-------15-13---------15-13-------15-13-------|
|-------------15------------15----------15----------15-|
|------------------------------------------------------|
|------------------------------------------------------|
|------------------------------------------------------|
|------------------------------------------------------|


                                                      F5           F
    PM           PM------------------|                 PM-----|           PM          PM---|
    E      E     E     E     S  S     E     Q          S S    E     E     E      E    E     E    E
|---------------------------------------------------|---------------------------------------------------|
|---------------------------------------------------|---------------------------------------------------|
|---------------------------------------------------|---------------------------------------------------|
|----------8--------------------------------8-------|---------------7------------7---------------7------|
|-(10)----10----10----10----10-10----10----10-------|--8-8----8-----8----(8)-----8----8-----8----8------|
|---------------------------------------------------|---------------------------------------------------|
|
|  +W                                                  W
|---------------------------------------------------|---------------------------------------------------|
|---------------------------------------------------|---------------------------------------------------|
|---------------------------------------------------|---------------------------------------------------|
|--(5)----------------------------------------------|--3------------------------------------------------|
|--(5)----------------------------------------------|--3------------------------------------------------|
|--(5)----------------------------------------------|--3------------------------------------------------|
|
|   |--------------------12:8---------------------|    |-------------------12:8---------------------|
|   E   E     E  E  E     E  E     E     E  E  E  E    E    E    E  E  E      E  E  E    E  E  E    E
|--15--13-------15-13-------15----13-------15-13----|-15---13------15-13--------15-13------15-13--------|
|------------15----------15-------------15-------15-|-----------15-----------15---------15---------15---|
|---------------------------------------------------|---------------------------------------------------|
|---------------------------------------------------|---------------------------------------------------|
|---------------------------------------------------|---------------------------------------------------|
|---------------------------------------------------|---------------------------------------------------|


  F5                                             Eb5          Eb
   PM               PM                            PM-----|           PM          PM---|
   E     E     E    E     E    E     E    E       S S    E     E     E      E    E     E     E
|----------------------------------------------|--------------------------------------------------|
|----------------------------------------------|--------------------------------------------------|
|-------------------------7h===8p====7---------|--------------------------------------------10----|
|--------7--------------------------------8----|---------------5------------5----------------x----|
|-(8)----8-----8----8--------------------------|--6-6----6-----6----(6)-----6----6-----6-----8----|
|----------------------------------------------|--------------------------------------------------|
|
| +W                                              W
|----------------------------------------------|--------------------------------------------------|
|----------------------------------------------|--------------------------------------------------|
|----------------------------------------------|--------------------------------------------------|
|-(3)------------------------------------------|--1-----------------------------------------------|
|-(3)------------------------------------------|--1-----------------------------------------------|
|-(3)------------------------------------------|--1-----------------------------------------------|
|
|  |------------------12:8-------------------|    |--------------------12:8---------------------|
|  E   E    E  E  E    E  E  E    E  E  E    E    E    E    E  E  E      E  E  E    E  E  E     E
|-15--13------15-13------15-13------15-13------|-15---13------15-13--------15-13------15-13-------|
|----------15---------15---------15---------15-|-----------15-----------15---------15----------15-|
|----------------------------------------------|--------------------------------------------------|
|----------------------------------------------|--------------------------------------------------|
|----------------------------------------------|--------------------------------------------------|
|----------------------------------------------|--------------------------------------------------|


                                        G5/Eb
   PM----|            PM-----------|
   E      E      E    E     S S    E     Q
|---------------------------------------------------|
|---------------------------------------------------|
|----------------8-----------------------7----------|
|----------------x-----------------------5----------|
|--8-----(8)-----6----6-----6-6----6-----6----------|
|---------------------------------------------------|
|
| +W
|---------------------------------------------------|
|---------------------------------------------------|
|---------------------------------------------------|
|-(1)-----------------------------------------------|
|-(1)-----------------------------------------------|
|-(1)-----------------------------------------------|
|
|  |-------------------12:8--------------------|
|  E   E      E  E  E    E  E    E    E  E  E  E
|-15--13--------15-13------15---13------15-13-------|
|------------15---------15-----------15-------15----|
|---------------------------------------------------|
|---------------------------------------------------|
|---------------------------------------------------|
|---------------------------------------------------|


  Dm
  W           W          H    E E E E   W          W
|-----------|----------|--------------|----------|------||
|-----------|----------|--------------|----------|------||
|-----------|----------|------x-x-x-x-|----------|------||
|-3/--------|----------|------x-x-x-x-|----------|------||
|-5/--------|----------|------x-x-x-x-|----------|------||
|-----------|----------|--------------|----------|------||
|
| W           W          H    E E E E   W          W
|-----------|----------|--------------|----------|------||
|-----------|----------|--------------|----------|------||
|-----------|----------|--------------|----------|------||
|-----------|----------|------x-x-x-x-|----------|------||
|-3/--------|----------|------x-x-x-x-|----------|------||
|-3/--------|----------|------x-x-x-x-|----------|------||


   Verse
    D5                  Eb5
     Q   Q   E q    E    Q   Q   E q    E
||--------------------|-------------------|
||o-------------------|-------------------|
||---7---7---x-7----7-|--8---8---x-8----8-|
||---x---x---x-x----x-|--x---x---x-x----x-|
||o--5---5---x-5----5-|--6---6---x-6----6-|
||--------------------|-------------------|
|
|    Q   Q   E Q    E    Q   Q   E Q    E
||--------------------|-------------------|
||o-------------------|-------------------|
||--------------------|-------------------|
||---0---0---0-0----0-|--1---1---1-1----1-|
||o--0---0---0-0----0-|--1---1---1-1----1-|
||---0---0---0-0----0-|--1---1---1-1----1-|
|
|   Gtr III
|    Q   Q   Q    Q      Q   Q   Q    Q
||--------------------|-------------------|
||o-------------------|---------13--------|
||--12--14--15---14---|-14--15-------15---|
||--------------------|-------------------|
||o-------------------|-------------------|
||--------------------|-------------------|


  F5                    F#5
   Q   Q   E  q     E    Q   Q   E  q     E  3x
|---------------------|----------------------||
|---------------------|---------------------o||
|-10--10---x-10----10-|-11--11---x-11----11--||
|--x---x---x--x-----x-|--x---x---x--x-----x--||
|--8---8---x--8-----8-|--9---9---x--9-----9-o||
|---------------------|----------------------||
|
|  Q   Q   E  Q     E    Q   Q   E  Q     E  3x
|---------------------|----------------------||
|---------------------|---------------------o||
|---------------------|----------------------||
|--3---3---3--3-----3-|--4---4---4--4-----4--||
|--3---3---3--3-----3-|--4---4---4--4-----4-o||
|--3---3---3--3-----3-|--4---4---4--4-----4--||
|
|  Q   Q   Q     Q       Q   Q   Q     Q     3x
|---------------------|----------------------||
|-----13--15----13----|-16--15--------15----o||
|-15------------------|---------15-----------||
|---------------------|----------------------||
|---------------------|---------------------o||
|---------------------|----------------------||


  D5                  Eb5                 F5                    F#5
   Q   Q   E q    E    Q   Q   E q    E    Q   Q   E  q     E    q  H.
|-------------------|-------------------|---------------------|-----------||
|-------------------|-------------------|---------------------|-----------||
|--7---7---x-7----7-|--8---8---x-8----8-|-10--10---x-10----10-|-11--------||
|--x---x---x-x----x-|--x---x---x-x----x-|--x---x---x--x-----x-|--x--------||
|--5---5---x-5----5-|--6---6---x-6----6-|--8---8---x--8-----8-|--9--------||
|-------------------|-------------------|---------------------|-----------||
|
|  Q   Q   E Q    E    Q   Q   E Q    E    Q   Q   E  Q     E    q  H.
|-------------------|-------------------|---------------------|-----------||
|-------------------|-------------------|---------------------|-----------||
|-------------------|-------------------|---------------------|-----------||
|--0---0---0-0----0-|--1---1---1-1----1-|--3---3---3--3-----3-|--4--------||
|--0---0---0-0----0-|--1---1---1-1----1-|--3---3---3--3-----3-|--4--------||
|--0---0---0-0----0-|--1---1---1-1----1-|--3---3---3--3-----3-|--4--------||
|
|  Q   Q   Q    Q      Q   Q   Q    Q      Q   Q   Q     Q       q  H.
|-------------------|-------------------|---------------------|-----------||
|-------------------|---------13--------|-----13--15----16----|-19--------||
|-12--14--15---14---|-14--15-------15---|-15------------------|-----------||
|-------------------|-------------------|---------------------|-----------||
|-------------------|-------------------|---------------------|-----------||
|-------------------|-------------------|---------------------|-----------||


   Chorus
    G5
     PM|          PM---|            PM-----------
         |-3--|            |-3--|
     E E E E  E E E  E E   E E  E E E  E E  E E
||-----------------------|----------------------|
||o----------------------|----------------------|
||-------7-8-10-7--------|-7-8-10-7-------------|
||-----8----------8----8-|----------8----8----8-|
||o-10--------------10---|------------10---10---|
||-----------------------|----------------------|
|
|    E E H           E E   H           q    q
||-----------------------|----------------------|
||o----------------------|----------------------|
||-----------------------|----------------------|
||---5-5-------------5-5-|-------------5----5---|
||o--5-5-------------5-5-|-------------5----5---|
||---5-5-------------5-5-|-------------5----5---|


  F5
 ---|          PM--|            PM------|
      |-3--|           |-3--|
  E E E E  E E E E E   E E  E E E E E E E   4x
|--------------------|----------------------||
|--------------------|---------------------o||
|-----7-8-10-7-------|-7-8-10-7-------------||
|---8----------8---8-|----------8---8---8---||
|-8--------------8---|------------8---8----o||
|--------------------|----------------------||
|
| E E H          E E   H          q   q     4x
|--------------------|----------------------||
|--------------------|---------------------o||
|--------------------|----------------------||
|-3-3------------3-3-|------------3---3-----||
|-3-3------------3-3-|------------3---3----o||
|-3-3------------3-3-|------------3---3-----||


 Breakdown
  D5                                            N.C.
  W             +W              +W               Q   Q   Q   Q
|-------------|---------------|---------------|-16---------------|
|-------------|---------------|---------------|-----15------16---|
|-------------|---------------|---------------|---------14-------|
|-0-----------|-(0)-----------|-(0)-----------|------------------|
|-0-----------|-(0)-----------|-(0)-----------|------------------|
|-0-----------|-(0)-----------|-(0)-----------|------------------|
|
| q  q  q  q     q   q  q  q     q   q  q  q     q   q   q   q
|-4--4--4--4--|--4---4--4--4--|--5---5--5--5--|--7---7---7---7---|
|-3--3--3--3--|--3---3--3--3--|--4---4--4--4--|--6---6---6---6---|
|-------------|---------------|---------------|------------------|
|-------------|---------------|---------------|------------------|
|-------------|---------------|---------------|------------------|
|-------------|---------------|---------------|------------------|


  q  q  q  q    q  q  q  q     q   q   q   q     Q   Q   Q   Q
|-8--8--8--8--|-8--8--8--8--|-10--10--10--10--|-14------14-------|
|-7--7--7--7--|-7--7--7--7--|--9---9---9---9--|-----13------13---|
|-------------|-------------|-----------------|------------------|
|-------------|-------------|-----------------|------------------|
|-------------|-------------|-----------------|------------------|
|-------------|-------------|-----------------|------------------|
|
| q  q  q  q    q  q  q  q     q   q   q   q     q   q   q   q
|-4--4--4--4--|-4--4--4--4--|--5---5---5---5--|--7---7---7---7---|
|-3--3--3--3--|-3--3--3--3--|--4---4---4---4--|--6---6---6---6---|
|-------------|-------------|-----------------|------------------|
|-------------|-------------|-----------------|------------------|
|-------------|-------------|-----------------|------------------|
|-------------|-------------|-----------------|------------------|


  D5
  Gtrs I, II
  W            +W            +W            +H     Q  Q
|-----------|--------------|-------------|---------------|
|-----------|--------------|-------------|---------------|
|-----------|--------------|-------------|---------------|
|-0---------|--(0)---------|-(0)---------|-(0)----0--0---|
|-0---------|--(0)---------|-(0)---------|-(0)----0--0---|
|-0---------|--(0)---------|-(0)---------|-(0)----0--0---|
|
| Gtr III
| H    H        H     H       H     H       H     H
|-----------|-^17----------|-------------|---------------|
|-----------|-^18----------|--3-----3----|--3-----3------|
|-2---------|-^19----------|--3-----3----|--3-----3------|
|-3---------|---------3----|--5-----5----|--5-----5------|
|-5----5----|---------5----|--7-----7----|--7-----7------|
|------0----|---------0----|-------------|---------------|


  W            +W            +W            +W
|-----------|--------------|-------------|----------------|
|-----------|--------------|-------------|----------------|
|-----------|--------------|-------------|----------------|
|-0---------|--(0)---------|-(0)---------|-(0)------------|
|-0---------|--(0)---------|-(0)---------|-(0)------------|
|-0---------|--(0)---------|-(0)---------|-(0)------------|
|
| H    H        H     H       H     H       E  E E E H
|-----------|-^17----------|-------------|----------------|
|-----------|-^18----------|--3-----3----|----------------|
|-2---------|-^19----------|--3-----3----|--8--7-5--------|
|-3---------|---------3----|--5-----5----|---------8-7----|
|-5----5----|---------5----|--7-----7----|----------------|
|------0----|---------0----|-------------|----------------|


    Gtr I
    PM------|   PM----------------|   PM----|
    S S S S E E E E E E   S S S S E E E E E E
||----------------------|---------------------|
||o---------------------|---------------------|
||----------------------|---------------------|
||----------------------|---------------------|
||o-0-0-0-0-0---0-0---0-|-0-0-0-0-0---0-0---0-|
||--0-0-0-0-0---0-0---0-|-0-0-0-0-0---0-0---0-|
|
|   Gtr II
|   H           H         H           H
||----------------------|---------------------|
||o---------------------|---------------------|
||--7-----------7-------|-8-----------8-------|
||--x-----------x-------|-x-----------x-------|
||o-5-----------5-------|-6-----------6-------|
||----------------------|---------------------|


        Csus2/D   D5          Csus2/D
                  PM------|
   H     q   Q    S S S S E E  q   Q
|--------8---8--|--------------8---8----||
|--------x---x--|--------------x---x---o||
|--------7---7--|--------------7---7----||
|--0-----x---x--|--------------x---x----||
|--0-----5---5--|-0-0-0-0-0----5---5---o||
|--0------------|-0-0-0-0-0-------------||
|
|  H     q   Q    E   E   E E  q   Q
|-------10--10--|-------------10--10----||
|--------9---9--|--------------9---9---o||
|-10------------|-x---x---x-x-----------||
|--x------------|-x---x---x-x-----------||
|--8------------|-x---x---x-x----------o||
|---------------|-----------------------||


 Verse
  D5                    Eb5
   T    T    T    T      T    T    T    T
   E E  E E  E E  E E    E E  E E  E E  E E
|---------------------|---------------------|
|---------------------|---------------------|
|-12p0-14p0-15p0-14p0-|-14p0-15p0-17p0-15p0-|
|---------------------|---------------------|
|---------------------|---------------------|
|---------------------|---------------------|
|
|  W                     W
|---------------------|---------------------|
|---------------------|---------------------|
|---------------------|---------------------|
|---------------------|---------------------|
|--0------------------|--1------------------|
|--0------------------|--1------------------|


  F5                    F#5
   T    T    T    T      T    T    T    T
   E E  E E  E E  E E    E E  E E  E E  E E
|---------------------|----------------------|
|---------------------|----------------------|
|-15p0-20p0-19p0-17p0-|-15p0-17p0-15p0-14p0--|
|---------------------|----------------------|
|---------------------|----------------------|
|---------------------|----------------------|
|
|  W                     W
|---------------------|----------------------|
|---------------------|----------------------|
|---------------------|----------------------|
|---------------------|----------------------|
|--3------------------|--4-------------------|
|--3------------------|--4-------------------|


    D5                    Eb5
     T    T    T    T      T    T    T    T
     E E  E E  E E  E E    E E  E E  E E  E E
||----------------------|---------------------|
||o---------------------|---------------------|
||--12p0-14p0-15p0-14p0-|-14p0-15p0-17p0-15p0-|
||----------------------|---------------------|
||o---------------------|---------------------|
||----------------------|---------------------|
|
|    Q    Q    E Q    E    Q    Q    E Q    E
||----------------------|---------------------|
||o---------------------|---------------------|
||----------------------|---------------------|
||----------------------|---------------------|
||o--0----0----0-0----0-|--1----1----1-1----1-|
||---0----0----0-0----0-|--1----1----1-1----1-|


  F5                    F#5
   T    T    T    T      T    T    T    T
   E E  E E  E E  E E    E E  E E  E E  E E
|---------------------|----------------------||
|---------------------|---------------------o||
|-15p0-20p0-19p0-17p0-|-15p0-17p0-15p0-14p0--||
|---------------------|----------------------||
|---------------------|---------------------o||
|---------------------|----------------------||
|
|  Q    Q    E Q    E    Q    Q    E Q    E
|---------------------|----------------------||
|---------------------|---------------------o||
|---------------------|----------------------||
|---------------------|----------------------||
|--3----3----3-3----3-|--4----4----4-4----4-o||
|--3----3----3-3----3-|--4----4----4-4----4--||


 Guitar Break
  N.C.
  Gtr I
   ~~
   H         +Q     Q     W
|----------------------|-----------------|
|----------------------|-----------------|
|-12--------(12)\------|-----------------|
|----------------------|-----------------|
|----------------------|-----------------|
|----------------------|-----------------|
|
| Gtr III
|  Q   E  E   Q     Q     Q   Q   Q   Q
|----------------------|-----------------|
|-----15-13--15----13--|-15--13------13--|
|-12-------------------|---------15------|
|----------------------|-----------------|
|-10-------------------|-12------13------|
|----------------------|-----------------|


   W                   W
|-------------------|------------------||
|-------------------|------------------||
|-------------------|------------------||
|-------------------|------------------||
|-------------------|------------------||
|-------------------|------------------||
|
|  Q   E  E  Q   Q     Q   Q   Q   Q
|-------------------|------------------||
|-----13-11-13--11--|-13--11--10--11---||
|-10----------------|------------------||
|-------------------|----------0-------||
|--8----------------|------------------||
|-------------------|-13---------------||

[ Tab from: http://www.guitartabs.cc/tabs/c/chiodos/all_nerids_beware_tab.html ]
                                         1.,2.
    Gtrs IV, V
     W                   W                 W
||--------------------|-----------------|-------------------|
||o-------------------|-----------------|-------------------|
||--------------------|-----------------|-------------------|
||--------------------|-----------------|-------------------|
||o-------------------|-----------------|-------------------|
||--------------------|-----------------|-------------------|
|
|   Gtr III
|    Q   E  E  Q   Q     Q   Q   Q   Q     Q   E  E  Q   Q
||--------------------|-----------------|-------------------|
||o-----15-13-15--13--|-15--13------13--|-----13-11-13--11--|
||--12----------------|---------15------|-10----------------|
||--------------------|-----------------|-------------------|
||o-10----------------|-12------13------|--8----------------|
||--------------------|-----------------|-------------------|


                     3.
   W               3x  Q   Q   Q   Q     Q   Q   Q   Q
|------------------||-----------------|-----------------||
|-----------------o||-10----------10--|---------10------||
|------------------||-----10----------|-10--------------||
|------------------||---------12------|-----12------12--||
|-----------------o||-----------------|-----------------||
|------------------||-----------------|-----------------||
|
|  Q   Q   Q   Q   3x  H       H         W
|------------------||---------17------|-18--------------||
|-13--11--10--11--o||-----------------|-----------------||
|------------------||-10--------------|-----------------||
|----------0-------||-----------------|-----------------||
|-----------------o||-----------------|-----------------||
|-13---------------||-----------------|-----------------||


 Bridge
  G5/D                              F5/C
   Q   Q   Q  Q     Q  Q   Q   Q     Q   Q   Q  Q     Q  Q   Q   Q
|--3---3---3--3--|--3--3---3---3--|--1---1---1--1--|--1--1---1---1---|
|--3---3---3--3--|--3--3---3---3--|--1---1---1--1--|--1--1---1---1---|
|----------------|----------------|----------------|-----------------|
|----------------|----------------|----------------|-----------------|
|----------------|----------------|----------------|-----------------|
|----------------|----------------|----------------|-----------------|
|
|  Q   Q   Q  Q     Q  Q   Q   Q     Q   Q   Q  Q     Q  Q   Q   Q
|-----11--10--8--|-----8------10--|-----11--10--8--|-----8------10---|
|----------------|-11-----11------|----------------|-11-----11-------|
|-10-------------|----------------|-10-------------|-----------------|
|----------------|----------------|----------------|-----------------|
|----------------|----------------|----------------|-----------------|
|----------------|----------------|----------------|-----------------|


  G5/D                              F5/C
   Q   Q   Q  Q     Q  Q   Q   Q      Q   Q  Q  Q     Q   Q   Q   Q
|--3---3---3--3--|--3--3---3---3--|---1---1--1--1--|--1---1---1---1---|
|--3---3---3--3--|--3--3---3---3--|---1---1--1--1--|--1---1---1---1---|
|----------------|----------------|----------------|------------------|
|----------------|----------------|----------------|------------------|
|----------------|----------------|----------------|------------------|
|----------------|----------------|----------------|------------------|
|
|  Q   Q   Q  Q     Q  Q   Q   Q     +W               Q   Q   Q   Q
|-----11--10--8--|-----8------10--|-(10)-----------|-17--17--18--18---|
|----------------|-11-----11------|----------------|------------------|
|-10-------------|----------------|----------------|------------------|
|----------------|----------------|----------------|------------------|
|----------------|----------------|----------------|------------------|
|----------------|----------------|----------------|------------------|


  G5/D
  Gtr IV
   E  E  E  E  E  E  E  E    E  E  E  E  E  E  E  E
|-15-15-15-15-15-15-15-15-|-15-15-15-15-15-15-15-15-|
|-15-15-15-15-15-15-15-15-|-15-15-15-15-15-15-15-15-|
|-------------------------|-------------------------|
|-------------------------|-------------------------|
|-------------------------|-------------------------|
|-------------------------|-------------------------|
|
| Gtr V
|  Q     Q     Q     Q       Q     Q     Q     Q
|--3-----3-----3-----3----|--3-----3-----3-----3----|
|--3-----3-----3-----3----|--3-----3-----3-----3----|
|-------------------------|-------------------------|
|-------------------------|-------------------------|
|-------------------------|-------------------------|
|-------------------------|-------------------------|
|
| Gtr III
|  E  E  E  E  E  E  E  E    E  E  E  E  E  E  E  E
|-18-18-17-17-15-15-15-15-|-18-18-17-17-15-15-15-15-|
|-------------------------|-------------------------|
|-------------------------|-------------------------|
|-------------------------|-------------------------|
|-------------------------|-------------------------|
|-------------------------|-------------------------|


  D5
   E  E  E  E  E  E  E  E    E  E  E  E  E  E  E  E
|-17-17-17-17-17-17-17-17-|-17-17-17-17-17-17-17-17--|
|-15-15-15-15-15-15-15-15-|-15-15-15-15-15-15-15-15--|
|-------------------------|--------------------------|
|-------------------------|--------------------------|
|-------------------------|--------------------------|
|-------------------------|--------------------------|
|
|  Q     Q     Q     Q       Q     Q     Q     Q
|--1-----1-----1-----1----|--1-----1-----1-----1-----|
|--1-----1-----1-----1----|--1-----1-----1-----1-----|
|-------------------------|--------------------------|
|-------------------------|--------------------------|
|-------------------------|--------------------------|
|-------------------------|--------------------------|
|
|  E  E  E  E  E  E  E  E    E  E  E  E  E  E  E  E
|-18-18-17-17-15-15-15-15-|-18-18-17-17-15-15-15-15--|
|-------------------------|--------------------------|
|-------------------------|--------------------------|
|-------------------------|--------------------------|
|-------------------------|--------------------------|
|-------------------------|--------------------------|


  Bb/D
   E  E  E  E  E  E  E  E    E  E  E  E  E  E  E  E
|-18-18-18-18-18-18-18-18-|-18-18-18-18-18-18-18-18-|
|-15-15-15-15-15-15-15-15-|-15-15-15-15-15-15-15-15-|
|-------------------------|-------------------------|
|-------------------------|-------------------------|
|-------------------------|-------------------------|
|-------------------------|-------------------------|
|
|  Q     Q     Q     Q       Q     Q     Q     Q
|--3-----3-----3-----3----|--3-----3-----3-----3----|
|--3-----3-----3-----3----|--3-----3-----3-----3----|
|-------------------------|-------------------------|
|-------------------------|-------------------------|
|-------------------------|-------------------------|
|-------------------------|-------------------------|
|
|  E  E  E  E  E  E  E  E    E  E  E  E  E  E  E  E
|-18-17-15----------------|-18-17-15----------------|
|----------18-16-15-------|----------18-16-15-------|
|-------------------17-15-|-------------------17-15-|
|-------------------------|-------------------------|
|-------------------------|-------------------------|
|-------------------------|-------------------------|


  Csus2/D
   E  E  E  E  E  E  E  E    E  E  E  E  E  E  E  E
|-20-20-20-20-20-20-20-20-|-20-20-20-20-20-20-20-20--||
|-15-15-15-15-15-15-15-15-|-15-15-15-15-15-15-15-15--||
|-------------------------|--------------------------||
|-------------------------|--------------------------||
|-------------------------|--------------------------||
|-------------------------|--------------------------||
|
|  Q     Q     Q     Q       Q     Q     Q     Q
|--1-----1-----1-----1----|--1-----1-----1-----1-----||
|--1-----1-----1-----1----|--1-----1-----1-----1-----||
|-------------------------|--------------------------||
|-------------------------|--------------------------||
|-------------------------|--------------------------||
|-------------------------|--------------------------||
|
|  E  E  E  E  E  E  E  E    E  E  E  E  E  E  E  E
|-18-17-15----------------|--------------------------||
|----------18-16-15-------|--------------------------||
|-------------------17-15-|-14-----------------------||
|-------------------------|----17-15-----------------||
|-------------------------|----------18-17-15-13-12--||
|-------------------------|--------------------------||


 Chorus
  Gm                                      F
  Gtr I
   E  E E E E E  E  E   E E E E  q   q    E E E E E E E E   E E E E q  q
|---------------------|-----------------|-----------------|----------------|
|---------------------|-----------------|-----------------|----------------|
|---------------------|-----------------|-----------------|----------------|
|--8--8-x-x-x-x--8--8-|-x-x-x-x--8---8--|-7-7-x-x-x-x-7-7-|-x-x-x-x-7--7---|
|-10-10-x-x-x-x-10-10-|-x-x-x-x-10--10--|-8-8-x-x-x-x-8-8-|-x-x-x-x-8--8---|
|---------------------|-----------------|-----------------|----------------|
|
| Gtr II
|  E  E E E E E  E  E   E E E E  q   q    E E E E E E E E   E E E E q  q
|---------------------|-----------------|-----------------|----------------|
|---------------------|-----------------|-----------------|----------------|
|---------------------|-----------------|-----------------|----------------|
|--5--5-x-x-x-x--5--5-|-x-x-x-x--5---5--|-3-3-x-x-x-x-3-3-|-x-x-x-x-3--3---|
|--5--5-x-x-x-x--5--5-|-x-x-x-x--5---5--|-3-3-x-x-x-x-3-3-|-x-x-x-x-3--3---|
|--5--5-x-x-x-x--5--5-|-x-x-x-x--5---5--|-3-3-x-x-x-x-3-3-|-x-x-x-x-3--3---|


  Gm
   E  E  E E E E  E  E    E E E  E E  E  Q
|----------------------|--------------------|
|----------------------|--------------------|
|-------10-7-----------|-10-7---------------|
|--8--8------x-x--8--8-|------x--8-x--8--8--|
|-10-10------x-x-10-10-|------x-10-x-10-10--|
|----------------------|--------------------|
|
|  E  E  E E E E  E  E    E E E  E q     q
|----------------------|--------------------|
|----------------------|--------------------|
|----------------------|--------------------|
|--5--5--x-x-x-x--5--5-|--x-x-x--x-5-----5--|
|--5--5--x-x-x-x--5--5-|--x-x-x--x-5-----5--|
|--5--5--x-x-x-x--5--5-|--x-x-x--x-5-----5--|


  F
  E E  E E E E E E    E E E E E E Q
|------------------|------------------|
|------------------|------------------|
|-----10-7---------|-10-7-------------|
|-7-7------x-x-7-7-|------x-7-x-7-7---|
|-8-8------x-x-8-8-|------x-8-x-8-8---|
|------------------|------------------|
|
| E E  E E E E E E    E E E E q   q
|------------------|------------------|
|------------------|------------------|
|------------------|------------------|
|-3-3--x-x-x-x-3-3-|--x-x-x-x-3---3---|
|-3-3--x-x-x-x-3-3-|--x-x-x-x-3---3---|
|-3-3--x-x-x-x-3-3-|--x-x-x-x-3---3---|


    G5
     PM|          PM---|            PM-----------
         |-3--|            |-3--|
     E E E E  E E E  E E   E E  E E E  E E  E E
||-----------------------|----------------------|
||o----------------------|----------------------|
||-------7-8-10-7--------|-7-8-10-7-------------|
||-----8----------8----8-|----------8----8----8-|
||o-10--------------10---|------------10---10---|
||-----------------------|----------------------|
|
|    PM              PM
|    q   H           q     W
||-----------------------|----------------------|
||o----------------------|----------------------|
||-----------------------|----------------------|
||-----------------------|----------------------|
||o--5---------------5---|----------------------|
||---5---------------5---|----------------------|


  F5
 ---|          PM--|            PM------|
      |-3--|           |-3--|
  E E E E  E E E E E   E E  E E E E E E E
|--------------------|----------------------||
|--------------------|---------------------o||
|-----7-8-10-7-------|-7-8-10-7-------------||
|---8----------8---8-|----------8---8---8---||
|-8--------------8---|------------8---8----o||
|--------------------|----------------------||
|
| PM             PM
| q   H          q     W
|--------------------|----------------------||
|--------------------|---------------------o||
|--------------------|----------------------||
|--------------------|----------------------||
|-3--------------3---|---------------------o||
|-3--------------3---|----------------------||


 Outro
  D5                                    N.C.
              3/4         4/4
  PM---------------|        ~~~
  H.      Q    Q   Q  Q     W           W
|------------|-----------|------------|-----------|
|------------|-----------|-[9]--------|-----------|
|------------|-----------|------------|-----------|
|------------|-----------|------------|-0---------|
|-0-------0--|-0---0-----|------------|-0---------|
|-0-------0--|-0---0-----|------------|-0---------|
|
| PM---------------|
| H.      Q    Q   Q  Q     W           W
|------------|-----------|--4---------|-----------|
|------------|-----------|--3---------|-----------|
|------------|-----------|------------|-----------|
|------------|-----------|------------|-0---------|
|-0-------0--|-0---0-----|------------|-0---------|
|-0-------0--|-0---0-----|------------|-0---------|
|
| Gtr III
| W            H.           W           H    H
|------------|-----------|------------|-----------|
|------------|-----------|------------|-3---------|
|------------|-----------|------------|-3---------|
|------------|-----------|------------|-5---------|
|------------|-----------|------------|------5----|
|------------|-----------|------------|------5----|


  Bb/G                         Cm/A
  Gtrs I, II
   +W            +W            +W
|--------------|-------------|--------------------|
|--------------|-------------|--------------------|
|--------------|-------------|--------------------|
|--(0)---------|-(0)---------|-(0)----------------|
|--(0)---------|-(0)---------|-(0)----------------|
|--(0)---------|-(0)---------|-(0)----------------|
|
| Gtr III
|   H     H       H     H       E   E  Q   Q   Q
|-^22----------|--5-----5----|-11-----------------|
|-^23----------|--4-----4----|-----13-------------|
|-^24-----3----|--5-----5----|--------14--15--14--|
|---------5----|--7-----7----|--------------------|
|--------------|-------------|--------------------|
|--------------|-------------|--------------------|


  D5
  Gtr I
  W              +W              +W            +W
|-------------|----------------|-------------|------------------|
|-------------|----------------|-------------|------------------|
|-------------|----------------|-------------|------------------|
|-0-----------|--(0)-----------|-(0)---------|-(0)--------------|
|-0-----------|--(0)-----------|-(0)---------|-(0)--------------|
|-0-----------|--(0)-----------|-(0)---------|-(0)--------------|
|
| Gtr II
| q  q  q  q      q   q  q  Q     W             W
|-4--4--4--4--|---4---4--4-----|-------------|------------------|
|-3--3--3--3--|---3---3--3-----|-------------|------------------|
|-------------|----------------|-------------|------------------|
|-------------|----------------|-------------|------------------|
|-------------|----------------|-------------|------------------|
|-------------|----------------|-------------|------------------|
|
| Gtr III
| H     H         H      H        H     H       E   E  Q   H
|-------------|-^22------------|--5-----5----|-11---------------|
|-3-----------|-^23------------|--4-----4----|-----13-----------|
|-3-----------|-^24------3-----|--5-----5----|--------14--15----|
|-5-----------|----------5-----|--7-----7----|------------------|
|-------5-----|----------------|-------------|------------------|
|-------5-----|----------------|-------------|------------------|


    Ebmaj7sus4                           F#maj7sus4
     q   q   q   q     q   q   q  Q    E  q   E  Q   Q    E  q   E  Q   Q   3x
||--10--10--10--10--|-10--10--10-----|---13--13-13--13--|---13--13-13--13---||
||o--9---9---9---9--|--9---9---9-----|---12--12-12--12--|---12--12-12--12--o||
||---8---8---8---8--|--8---8---8-----|---11--11-11--11--|---11--11-11--11---||
||------------------|----------------|------------------|-------------------||
||o-----------------|----------------|------------------|------------------o||
||------------------|----------------|------------------|-------------------||
|
|    q   q   q   q     q   q   q  Q    E  q   E  Q   Q    E  q   E  Q   Q   3x
||---4---4---4---4--|--4---4---4-----|----8---8--8---8--|----8---8--8---8---||
||o--3---3---3---3--|--3---3---3-----|----7---7--7---7--|----7---7--7---7--o||
||------------------|----------------|----6---6--6---6--|----6---6--6---6---||
||------------------|----------------|------------------|-------------------||
||o-----------------|----------------|------------------|------------------o||
||------------------|----------------|------------------|-------------------||


  D5        Ebmaj7D5s4      Ebmaj7D5s4      Ebmaj7D5s4      Ebmaj7sus4
  PM   PM|        PM-----|        PM   PM|        PM-----|
  Q  E E Q   Q    E Q  E Q   Q    Q  E E Q   Q    E Q  E Q   Q
|-----------10--|-----------10--|-----------10--|-----------10---|
|------------9--|------------9--|------------9--|------------9---|
|------------8--|------------8--|------------8--|------------8---|
|---------------|---------------|---------------|----------------|
|-0----0-0------|-0-0--0-0------|-0----0-0------|-0-0--0-0-------|
|-0----0-0------|-0-0--0-0------|-0----0-0------|-0-0--0-0-------|
|
| PM   PM|        PM-----|        PM   PM|        PM-----|
| Q  E E Q   Q    E Q  E Q   Q    Q  E E Q   Q    E Q  E Q   Q
|------------4--|------------4--|------------4--|------------4---|
|------------3--|------------3--|------------3--|------------3---|
|------------2--|------------2--|------------2--|------------2---|
|---------------|---------------|---------------|----------------|
|-0----0-0------|-0-0--0-0------|-0----0-0------|-0-0--0-0-------|
|-0----0-0------|-0-0--0-0------|-0----0-0------|-0-0--0-0-------|


  D5
  PM----|                       PM----|
  E E E E +H       +W           E E E E +H        W
|----------------|------------|----------------|--------------|
|----------------|------------|----------------|--------------|
|----------------|------------|----------------|--------------|
|----------------|------------|----------------|--------------|
|-0-0-0-0-(0)----|-(0)--------|-0-0-0-0-(0)----|-12\----------|
|-0-0-0-0-(0)----|-(0)--------|-0-0-0-0-(0)----|-12\----------|
|
| PM----|                       PM----|
| E E E E +H       +W           E E E E +H       +H     H
|----------------|------------|----------------|--------------|
|----------------|------------|----------------|--------------|
|----------------|------------|----------------|--------------|
|----------------|------------|----------------|--------7-----|
|-0-0-0-0-(0)----|-(0)--------|-0-0-0-0-(0)----|-(0)----7\----|
|-0-0-0-0-(0)----|-(0)--------|-0-0-0-0-(0)----|-(0)----7\----|


    D5                  Bbmaj7suD5                                 Bbmaj7sus4
    PM------------|             PM----------------------------|
    Q  Q  Q  Q    Q  Q   H      S S S E E. S S S E E.   S S S E E.  Q   Q
||--------------|-------------|-----------------------|----------------------|
||o-------------|-------------|-----------------------|----------------------|
||--------------|-------14----|-----------------------|------------14--15----|
||--------------|--------x----|-----------------------|-------------x---x----|
||o-0--0-----0--|-0-----12----|-0-0-0-0----0-0-0-0----|-0-0-0-0----12--13----|
||--0--0-----0--|-0-----------|-0-0-0-0----0-0-0-0----|-0-0-0-0--------------|
|
|   PM------------|             PM----------------------------|
|   Q  Q  Q  Q    Q  Q   H      S S S E E. S S S E E.   S S S E E.  H
||--------------|--------5----|-----------------------|-------------5--------|
||o-------------|--------4----|-----------------------|-------------4--------|
||--------------|--------3----|-----------------------|-------------3--------|
||--------------|-------------|-----------------------|----------------------|
||o-0--0-----0--|-0-----------|-0-0-0-0----0-0-0-0----|-0-0-0-0--------------|
||--0--0-----0--|-0-----------|-0-0-0-0----0-0-0-0----|-0-0-0-0--------------|


                             1.
  D5                  Bbmaj7suD5
  PM------------|
  Q  Q  Q  Q    Q  Q   H       Q   Q   Q  Q
|-------------|-------------|----------------|
|-------------|-------------|----------------|
|-------------|-------14----|-----14--15-----|
|-------------|--------x----|------x---x-----|
|-0--0-----0--|-0-----12----|--0--12--13--0--|
|-0--0-----0--|-0-----------|--0----------0--|
|
| PM------------|
| Q  Q  Q  Q    Q  Q   H       H       H
|-------------|--------5----|-14-------------|
|-------------|--------4----|---------10-----|
|-------------|--------3----|----------------|
|-------------|-------------|----------------|
|-0--0-----0--|-0-----------|----------------|
|-0--0-----0--|-0-----------|----------------|


                     2.
    Q  Q   Q   Q       Q   Q   Q   Q     Q   Q   Q   Q
|------------------||-----------------|------------------|
|-----------------o||-----------------|------------------|
|--17-----14--15---||-----14--15------|-17------14--15---|
|---x------x---x---||------x---x------|--x-------x---x---|
|--15--0--12--13--o||--0--12--13---0--|-15---0--12--13---|
|------0-----------||--0-----------0--|------0-----------|
|
|   H      H           Q   Q   Q   Q     Q   Q   Q   Q
|------------------||-14------15------|-16------17-------|
|-/16-------------o||-----13------14--|-----15------16---|
|----------0-------||-----------------|------------------|
|------------------||-----------------|------------------|
|-----------------o||-----------------|------------------|
|------------------||-----------------|------------------|


  D5 Amaj7sus4
  PM------------|
  Q  Q  Q  Q    Q  Q   H
|-------------|--------------|
|-------------|--------------|
|-------------|-------14-----|
|-------------|--------x-----|
|-0--0-----0--|-0-----12-----|
|-0--0-----0--|-0------------|
|
| q  q  q  q    q  q   q  q
|-4--4--4--4--|-4--4---4--4--|
|-3--3--3--3--|-3--3---3--3--|
|-2--2--2--2--|-2--2---2--2--|
|-------------|--------------|
|-------------|--------------|
|-------------|--------------|


  Ebmaj7sus4                      F#maj7sus4
   PM------------------------------------|
   S S S E    E.  S S S E    E.    S S S E    E.  Q   Q
|-------------------------------|------------------------|
|-------------------------------|------------------------|
|-------------------------------|----------------14--15--|
|-------------------------------|-----------------x---x--|
|--0-0-0-0--------0-0-0-0-------|--0-0-0-0-------12--13--|
|--0-0-0-0--------0-0-0-0-------|--0-0-0-0---------------|
|
|  q        q     q        q       q        q     q   q
|-10-------10----10-------10----|-13-------13----13--13--|
|--9--------9-----9--------9----|-12-------12----12--12--|
|--8--------8-----8--------8----|-11-------11----11--11--|
|-------------------------------|------------------------|
|-------------------------------|------------------------|
|-------------------------------|------------------------|


  Amaj7sus4                    Ebmaj7sus4        F#maj7sus4
  PM------------|
  Q  Q  Q  Q    Q  Q   H        Q   Q   Q   Q     Q   Q   H
|-------------|--------------|-----------------|------------------|
|-------------|--------------|-----------------|------------------|
|-------------|-------14-----|-----14--14------|-14--12--11-------|
|-------------|--------x-----|------x---x------|--x---x---x-------|
|-0--0-----0--|-0-----12-----|--0--12--12---0--|-12--10---9-------|
|-0--0-----0--|-0------------|--0-----------0--|------------------|
|
| q  q  q  q    q  q   q  q     q   q   q   q     q   q   q   q
|-4--4--4--4--|-4--4---4--4--|-10--10--10--10--|-13--13--13--13---|
|-3--3--3--3--|-3--3---3--3--|--9---9---9---9--|-12--12--12--12---|
|-2--2--2--2--|-2--2---2--2--|--8---8---8---8--|-11--11--11--11---|
|-------------|--------------|-----------------|------------------|
|-------------|--------------|-----------------|------------------|
|-------------|--------------|-----------------|------------------|


  N.C.                          N.C.
                   2/4         4/4
   Q.    Q.    Q     Q   Q       W
|-----------------|---------||--------------------|
|-----------------|---------||o-------------------|
|-14--------------|---------||--------------------|
|-------15----12--|-12S=17--||--------------------|
|-----------------|---------||o-------------------|
|-----------------|---------||--------------------|
|
| Gtr III
|  W                 H           Q   E  E  Q   Q
|-----------------|---------||--------------------|
|-----------------|---------||o-----15-13-15--13--|
|-----------------|---------||--12----------------|
|-----------------|---------||--------------------|
|-----------------|---------||o-10----------------|
|-----------------|---------||--------------------|


   W                 W
|-----------------|--------------------|
|-----------------|--------------------|
|-----------------|--------------------|
|-----------------|--------------------|
|-----------------|--------------------|
|-----------------|--------------------|
|
|  Q   Q   Q   Q     Q   E  E  Q   Q
|-----------------|--------------------|
|-15--13------13--|-----13-11-13--11---|
|---------15------|-10-----------------|
|-----------------|--------------------|
|-----------------|--8-----------------|
|-----------------|--------------------|


  Gtr III
   Q   Q   Q   Q       W          Wx7
|------------------||-----------|--------*|
|-13--11--10--11--o||-----------|--------*|
|------------------||-12--------|--------*|
|------------------||-----------|--------*|
|-----------------o||-10--------|--------*|
|------------------||-----------|--------*|




--------------------------------------------------------------------------------


Duration Legend
---------------
W - whole; H - half; Q - quarter; E - 8th; S - 16th; T - 32nd; X - 64th; a - acciaccatura
+ - note tied to previous; . - note dotted; .. - note double dotted
Uncapitalized letters represent notes that are staccato (1/2 duration)
Irregular groupings are notated above the duration line
Duration letters will always appear directly above the note/fret number it represents the
duration for.  Duration letters with no fret number below them represent rests.  Multi-
bar rests are notated in the form Wxn, where n is the number of bars to rest for.  Low
melody durations appear below the staff

Tablature Legend
----------------
 h   - hammer-on
 p   - pull-off
 b   - bend
 pb  - pre-bend
 r   - bend release (if no number after the r, then release immediately)
 /\  - slide into or out of (from/to "nowhere")
 s   - legato slide
 S   - shift slide
 - natural harmonic
[n]  - artificial harmonic
n(n) - tapped harmonic
 ~   - vibrato
 tr  - trill
 T   - tap
 TP  - trem. picking
 PM  - palm muting
\n/  - tremolo bar dip; n = amount to dip
 \n  - tremolo bar down
 n/  - tremolo bar up
/n\  - tremolo bar inverted dip
 =   - hold bend; also acts as connecting device for hammers/pulls
 <> - volume swell (louder/softer)
 x   - on rhythm slash represents muted slash
 o   - on rhythm slash represents single note slash

Misc Legend
-----------
 |  - bar
||  - double bar
||o - repeat start
o|| - repeat end
*|  - double bar (ending)
 :  - bar (freetime)
 $  - Segno
 &  - Coda
Tempo markers -  = BPM(8/16=s8/s16), where s8 = swing 8ths, s16 = swing 16ths



--------------------------------------------------------------------------------
Comments