Chiodos - All Nereids Beware Chords & Tabs

 

All Nereids Beware Chords & Tabs

Chiodos Chords & Tabs

Version: 1 Type: Bass Tab 0 ratings
1 star 2 stars 3 stars 4 stars 5 stars
comments

All Nereids Beware Bass Tab

Intro
G|-------------------------------------------------|
D|-------------------------------------------------|
A|-------------------------------------------------|
D|-5~---3~----1~---3-4----5~-----3~----1~-----3----|

Fill
G|-00--7-00-8-0-10-0-10-----------0--7-0-8-0-10-0-10---------|
D|-----------------------X-X-X-X---------------------X-X-X-X-|
A|-----------------------------------------------------------|
D|-----------------------------------------------------------|

Verse
G|---------------------------------------------------|  x4
D|---------------------------------------------------|
A|--55-55--66-66--88-88--99-99-----------------------|
D|---------------------------------------------------|

Chorus
G|---------------------------------------------------|  x2
D|---------------------------------------------------|
A|---------------------------------------------------|
D|--5-55-55--3-33-33-5-55-55-3-33-33-----------------|

Post Chorus
G|----------------------|------------------------------|
D|----------------------|------------------------------|
A|----------------------|--------6----------5--6--8--9-|
D|--0~--0-----0~----0~--|-0-0-0-0--0-0-0---------------|

Verse
G|-----------------------------------------------------| x2
D|-----------------------------------------------------|
A|-----------------------------------------------------|
D|-00-00--11-11--33-33--44-44--------------------------|
[ Tab from: http://www.guitartabs.cc/tabs/c/chiodos/all_nereids_beware_btab.html ]
Fill                                     x3
G|---5h6h7-5-7-5---5-----3h4h5-3-5-3-2-3----|---5h6h7-5-7-5---5----|
D|-5-------------8-----3--------------------|-5-------------8---3~-|
A|------------------------------------------|----------------------|
D|------------------------------------------|----------------------|

G|----------------------------77-3-----------------------| x2
D|-55555555--33333333--55555--------33333333-------------|
A|-------------------------------------------------------|
D|-------------------------------------------------------|

Chorus               x2                x2
G|----------------------|------------|
D|----------------------|------------|
A|----------------------|------------|
D|--5-55-55--3-33-33----|-5-5--3-3---|

Breakdown                             x2                 x2         x2
G|----------|------|---------------------|-----------------|----------|
D|----------|------|---------------------|-----------------|----------|
A|--------6-|------|-----------6666-6666-|------6------6---|----------|
D|-0--000---|-0---0|/15-00-0000----------|-0-00----0-000---|-0-0-0-0--|

                           x4                            x2
G|----------------------------|-------|---------------------|------|
D|----------------------------|-------|---------------------|---54-|
A|----------6-------------5---|-------|----------66666666---|-6----|
D|--0-0-00----000-000-000-----|-xxxxx-|-00000000------------|------|

Outro
G|---------------------------------|
D|-5~--3~---5~--3~-----------------|
A|---------------------------------|
D|-5~--3~---5~--3~--3-5~-----------|


ya thats it im like 100% shure thats it...
its a fun song to play because chiodos is basically the most amazing band ever...
Comments