Chinkees - You Dont Know Chords & Tabs

 

You Dont Know Chords & Tabs

Chinkees Chords & Tabs

Version: 1 Type: Bass Tab 0 ratings
1 star 2 stars 3 stars 4 stars 5 stars
comments

You Dont Know Bass Tab

   Song:You Dont Know
        Band:The Chinkees
        Album:The Chinkees Are Coming
        tabbed by: Phil McCombs(BigFatGuy7@aol.com)
[ Tab from: http://www.guitartabs.cc/tabs/c/chinkees/you_dont_know_btab.html ]
                (Intro) 
                
G:----------------------------------------------------------------------------
D:-----------5-5-------7-7------8-8-------7-7--------8-8---------7-7----------
A:-5-5----------5-5------6-6------5-5--------6-6--------5-5---------5--3--1--0----5--5--5-
E:-------3-3----------------------------------------------------------------------3--3--3-
            
            (verse)
                
G:----------------------------------------------------------------------------             
D:-----------------------------4-4-5-5-7-7-------5-5-3-3----------------------
A:--1-1-1-1-1-1-1-1-5-5----------------------------------5-5-6--6--8--8-------
E:----------------------------------------------3-3---------------------------

            (slow part)
                
G:------------------------------------7-7-------------------------------------
D:------------------------------7-7------7------------------------------------
A:--1-1-1-1-1-1-1-1-5-5---------------5------------------------6-6-6-6-6-6-6-6
E:-----------------------------------------------3-3-3-3-3-3-3-3--------------


Comments