Chingy - One Call Away Chords & Tabs

 

One Call Away Chords & Tabs

Chingy Chords & Tabs

Version: 6 Type: Tab 0 ratings
1 star 2 stars 3 stars 4 stars 5 stars
comments

One Call Away Tab

This is my first tab and I think it sounds right.

standard tuning

slide /
[ Tab from: http://www.guitartabs.cc/tabs/c/chingy/one_call_away_tab_ver_6.html ]
e|-------------------------------------7--|
B|-------0---------------0-------------7--|
G|-----0---0-------0-------0---------7----|  repeat throughout song
D|---2-------2-------4-------4-----9------|
A|-3-----------3/5-----5-------5/7--------|
E|----------------------------------------|


pre-chorus

e|------------------------------------|
B|-------0--------0-------0--------0--|
G|-----0--------0-------0--------0----|
D|---2--------2-------2--------2------|
A|-3--------3-------3--------3--------|
E|------------------------------------|

KURAHARD!!!
Comments