Chingy - One Call Away Chords & Tabs

 

One Call Away Chords & Tabs

Chingy Chords & Tabs

Version: 4 Type: Tab 0 ratings
1 star 2 stars 3 stars 4 stars 5 stars
comments

One Call Away Tab

standard tuning

e---------------------------------------7------
B-------0----------------0--------------7------
G-----0----0---------0-----0---0---------------
D-2-2--------2-2/4-4------------------9--------
A-3------------3/5-----5-----5------7----------
E---------------------------------0------------
[ Tab from: http://www.guitartabs.cc/tabs/c/chingy/one_call_away_tab_ver_4.html ]
e---------------------------------------7------
B-------0----------------0--------------7------
G-----0----0---------0-----0---0---------------
D-2-2--------2-2/4-4------------------9--------
A-3------------3/5-----5-----5------7----------
E---------------------------------0------------

e---------------------------------------7------
B-------0----------------0--------------7------
G-----0----0---------0-----0---0---------------
D-2-2--------2-2/4-4------------------9--------
A-3------------3/5-----5-----5------7----------
E---------------------------------0------------

repeats throughout the whole song
tabbed by seth
www.visualyze.net
Comments