Chingy - One Call Away Chords & Tabs

 

One Call Away Chords & Tabs

Chingy Chords & Tabs

Version: 2 Type: Tab 0 ratings
1 star 2 stars 3 stars 4 stars 5 stars
comments

One Call Away Tab

ARTIST:CHINGY
ALBUM:JACKPOT
TITLE:ONE CALL AWAY

This is played throughout the whole song.

E-------------------------------------------------------
B-------0----------0----------8-------------------------
G-----0---0------0---0-----9--9-------------------------
D---2----------4---------9----9-------------------------
A-3----------5---------7------7-------------------------
E-------------------------------------------------------
[ Tab from: http://www.guitartabs.cc/tabs/c/chingy/one_call_away_tab_ver_2.html ]
This is the last line before the chorus.

E--------------------------------------------------------
B-------0---------0---------0---------0------------------
G-----0---0-----0---0-----0---0-----0---0----------------
D---2---------4---------2---------2----------------------
A-3---------5---------3---------3------------------------
E--------------------------------------------------------


I think this is pretty accurate...
comments or questions: beatles_28@hotmail.com
Comments