Chingon - Fideo De Oestre Chords & Tabs

 

Fideo De Oestre Chords & Tabs

Chingon Chords & Tabs

Version: 1 Type: Tab 0 ratings
1 star 2 stars 3 stars 4 stars 5 stars
comments

Fideo De Oestre Tab

   
----------------------------------------------------------------------------
			     Chingon - Fideo de Oestre
----------------------------------------------------------------------------
Tabbed by: Paul Kennedy

This my first tab so dont complain but please vote :-) great song powerfull 
solo based around the Key of A Lydian Mode also in E at the 12th fret 
and at 18th A# this is the bulk of the solo, transcribed by ear only.

Tuning: Standard

[ Tab from: http://www.guitartabs.cc/tabs/c/chingon/fideo_de_oestre_tab.html ]
     ~   h p     h p   pp  p  /     /                       h     h       ~
e|---5--5-6-5---5-6-5--865---45--------------------------------------------|
B|-5-----------5----------86-------5-19-19-19-19-19-17-19------------------|
G|--------------------------------------------------------16-18-16-18----16|
D|--------------------------------------------------------------------19---|
A|-------------------------------------------------------------------------|
E|-------------------------------------------------------------------------|
    ~          ~    /             b1/2     /                   p       ~
e|-------------------------------------------------------------------------|
B|---12-13-12-10---19-19-19-19-19-19--19--19-19-19-19-----12-15-13-12-13---|
G|-12---------------------------------------------------14-----------------|
D|----------------------------------------------------16-------------------|
A|-------------------------------------------------------------------------|
E|-------------------------------------------------------------------------|
   bW bW       bW
e|-19-19-17-16-16----------------------------------------------------------|
B|-------------------------------------------------------------------------|
G|-------------------------------------------------------------------------|
D|-------------------------------------------------------------------------|
A|-------------------------------------------------------------------------|
E|-------------------------------------------------------------------------|


| /    slide up
| \    slide down
| bW   bend note up a tone
| b1/2 bend note up a semi-tone
| h    hammer-on
| p    pull-off
| ~    vibrato
| +    harmonic
| x    Mute note
============================================================================
Comments