China Drum - Somewhere Else Chords & Tabs

 

Somewhere Else Chords & Tabs

China Drum Chords & Tabs

Version: 1 Type: Bass Tab 0 ratings
1 star 2 stars 3 stars 4 stars 5 stars
comments

Somewhere Else Bass Tab

   
A logical tribute to that Band... Great songs and brilliant career,,,
I was lucky to see them, still very good on stage,
in a small venue The Cluny in Newcastle, UK... on nov28-2013
Great gig !
So I composed the tabs next day... to share it,,,
I recommend that song to my fellow bass players...
Just enjoy !!
And rate !!


Album: Somewhere else
Tempo : 110 bpm
Intro 00:04
G|---------------------------------------------|
D|---------------------------------------------| X2
A|----------3-3-2--3-2-------------3--2--3-2---|
E|-0~-2-3-3------------3-0--2-3--3-------------|


Verse 1 00:22
G|---------------------------------------------|
D|---------------------------------------------| X2
A|----------3-3-2--3-2-------------3--2--3-2---|
E|-0~-2-3-3------------3-0--2-3--3-------------|
Creeping over to you on a Saturday afternoon
I must have been ill, I was early
Crawling along, I was seeing what had happened
Through last night
it was nothing I assure you

00:39
G|---------------------------------------------------------------------|
D|-2--------------------2--------------------2------------------2------|
A|---5-3--2-----------2---5/3--2-----------2---5/3--2-------------2----|
E|----------0--0-2-3--------------0--0-2-3-------------0--0-2-3-----5--|
Well it's time to place your bets
You better make sure it's a safe one
You could always answer no
I never smoked your cigarettes
I suppose you could say that's a safe one

Bridge : 00:52
G|-----------------------------------------------|
D|-----------------------------------------------|
A|-----------------------------------------------|
E|-5555555-7777777--7-5-3------------------------|
Five miles down you'll never hear the attitude

G|---------------------------------------------|
D|---------------------------------------------|
A|----------3-3-2--3-2-------------3--2--3-2---|
E|-0~-2-3-3------------3-0--2-3--3-------------|
Calm down I'd better go somewhere else
somewhere else

Verse 2 : 01:06
G|----------------------------------------------------------------|
D|----------------------------------------------------------------|
A|---------3-3-2--3-2------------3--2-----------------------------|
E|-0~-2-3-3----------3-0--2-3--3----------------------------------|
Falling over each other in the rush to get in their worth
It's so sad and it's boring
It's a shame we couldn’t focus on our powers somewhere else
Someone nice someone caring

01:23
G|---------------------------------------------------------------------|
D|-2--------------------2--------------------2------------------2------|
A|---5-3--2-----------2---5/3--2-----------2---5/3--2-------------2----|
E|----------0--0-2-3--------------0--0-2-3-------------0--0-2-3-----5--|
But it's all been said before
Still nothing ever changes
We're still hunting out for more
I never meant to cut you short
I wasn't capable of anything

Bridge : 01:36
G|-----------------------------------------------|
D|-----------------------------------------------|
A|-----------------------------------------------|
E|-5555555-7777777--7-5-3------------------------|
Five years on you'd never hear that attitude
[ Tab from: http://www.guitartabs.cc/tabs/c/china_drum/somewhere_else_btab.html ]
G|---------------------------------------------|
D|---------------------------------------------|
A|----------3-3-2--3-2-------------3--2--3-2---|
E|-0~-2-3-3------------3-0--2-3--3-------------|
Calm down I'd rather be somewhere else,
Somewhere else

Instrumental : 01:45
G|---------------------------------------------|
D|---------------------------------------------| X2
A|----------3-3-2--3-2-------------3--2--3-2---|
E|-0~-2-3-3------------3-0--2-3--3-------------|


Verse 3 : 01:58
G|---------------------------------------------------------------------|
D|-2--------------------2--------------------2------------------2------|
A|---5-3--2-----------2---5/3--2-----------2---5/3--2-------------2----|
E|----------0--0-2-3--------------0--0-2-3-------------0--0-2-3-----5--|
Well it's time to place your bets
You better make sure it's a safe one
I could always answer no
I never understood what you meant
When you said she'd hang on every syllable

02:12
G|------------------------------------------------|
D|------------------------------------------------|
A|------------------------------------------------|
E|-5555555-7777777-7-5-3-5555555-7777777-7-5-3-0--|
Five years on I've never seen the attitude
Calm down, I'd like a bit of gratitude
I only came here for a bit of solitude
But right now I'd rather be somewhere else

G|----------------------------------------------|
D|----------------------------------------------|
A|----------------------------------------------|
E|----------------------------------------------|
Somewhere else

Bridge: 02:21 pause

Verse 3 : 02:29 (soft bass)
G|-----------------------------------|
D|-----------------------------------| x2
A|----------3--3-2----------3--3-2---|
E|-0~-2-3-3--------0--2-3-3----------|
Crawling over to you on a Saturday afternoon
I must have been ill I was early
Creeping along I was seeing what had happened through last night
It was nothing I assure you

Final rounds : 02:46
G|---------------------------------------------------|
D|---------------------------------------------------| x2
A|--------------333333-2222-------------333333-2222--|
E|-0000-2-33333-------------0000-2-33333-------------|
On my bike, up the glen, in the sun
Round the bends, having fun, playing games
In the rain, in the lakes, at the gig
Watch the stage from the crowd, in the clouds
Going down, eating in, on the town, in a spin

G|---------------------------------------------|
D|---------------------------------------------| X2
A|----------3-3-2--3-2-------------3--2--3-2---|
E|-0~-2-3-3------------3-0--2-3--3-------------|
On my bike, up the glen, in the sun
Round the bends, having fun, playing games
In the rain, in the lakes, at the gig
Watch the stage from the crowd, in the clouds
Going down, eating in, on the town, in a spin

03:22
G|-----------------------------------------------|
D|-----------------------------------------------| x2
A|----------3-3-2--3-2-------------3-3-2--3-2----|
E|-0~-2-3-3------------3-0--2-3--3------------3--|
On my bike, up the glen, in the sun
Round the bends, having fun, playing games
In the rain, in the lakes, at the gig
Watch the stage from the crowd, in the clouds
Going down, eating in, but ha, not with you

G|-------|
D|-------|
A|-------|
E|-0~~---|

End : 03:50

Tablature Legend ----------------
| S  slap
| P  pop
| x  mute note
| /  slide up
| \  slide down
| h  hammer-on
| p  pull-off
| g  grace note
| ~  vibrato
| ^  brush up
Comments