Chimaira - The Dehumanizing Process Chords & Tabs

 

The Dehumanizing Process Chords & Tabs

Chimaira Chords & Tabs

Version: 1 Type: Tab 0 ratings
1 star 2 stars 3 stars 4 stars 5 stars
comments

The Dehumanizing Process Tab

   
Chimaira - The Dehumanizing Process
TabbeR: Sqweeky
Tuning: CGCFAD

Riff A
|----------------------------------------------------|
|----------------------------------------------------|
|-----------------------------6666--5555--6666--8888-|
|----------------7777--8888--------------------------|
|---6666--6666---------------------------------------|
|----------------------------------------------------|

Riff B
|-----------------------|
|-----------------------|
|-----------------------|
|-----------------------|
|-3-1-0-1--2--3-1-0--2--|
|-3-1-0-1-----3-1-0-----|
  . . . .     . . .
[ Tab from: http://www.guitartabs.cc/tabs/c/chimaira/the_dehumanizing_process_tab.html ]
Riff C
|------------------------------------------|
|------------------------------------------|
|------------------------------------------|
|------------------------------------------|
|-3-1-0-1--2----3-1-0--2--------2-----2----|
|-3-1-0-1-------3-1-0-------3br---3br---1--|
  . . . .       . . . 
 
Fill
|------------------------------|
|------------------------------|
|------------------------------|
|----------4h5p4h5p4-3h4p3h4p3-|
|-2-2-2-2----------------------|
|------------------------------|

Riff D (guitar 1)
|------------------------------------|
|------------------------------------|
|------------------------------------|
|------------------------------------|
|------------------------------------|
|-6-5-3-0-00000000-6-5-3-0-00000000--|
          ........         ........

There is one riff where G2 plays:
|-------------------|
|-------------------|
|-------------------|
|-------------------|
|-------------------|
|-9-8-6-0-00000000--|
          ........

Fill
|-----------------------------------------|
|-----------------------------------------|
|-----------------------------------------|
|-5h6p5h6p5-4h5p4h5p4-3h4p3h4p3-2h3p2h3p2-|
|-----------------------------------------|
|-----------------------------------------|

Riff E
|--------------------|
|--------------------|
|--------------------|
|--------------------|
|-6666-6666^-6-6-----|
|----------------0-0-|
                 . .
Comments