Chimaira - The Dehumanizing Process Chords & Tabs

 

The Dehumanizing Process Chords & Tabs

Chimaira Chords & Tabs

Version: 2 Type: Bass Tab

The Dehumanizing Process Bass Tab

   
Chimaira  The Dehumanizing Process

F
C
G    - Tuning
C

--------------------------------------------|
-----------------------777--------888-------|
--666-------666-----------------------------|
--------------------------------------------|    1x  Intro

--666-------555--------666--------888----888-|
---------------------------------------------|
---------------------------------------------|
---------------------------------------------|


EXPLODE!!!
--------------------------------------------|
--------------------------------------------|     3x
--------2-------------2---------------------|            \
0-1-3-1---3-2-1-0-1-3----3-2-1--------------|             2x   Heavy Part
                                          /
--------------------------------|
--------------------------------|   1x
--------2-------------2-2-2-----|
0-1-3-1---3-2-1-0-1-3-----------|


--------------------------------    --------------------------------|
--------------------------------    --------------------------------|
-------1---------1------2----2--    ------1-------1-----2-----------|
--0130--------000-----3----3---1    --0130-----000----3----0000-0-0-|

--------------------------------    --------------------------------|    Verse
--------------------------------    --------------------------------|
-------1---------1------2----2--    -------1-------1----2-----------|
--0130--------000-----3----3---1    --0130-----000----3-------------|

-------------------------|
-------------------------|   3x
-------------------------|       \
-6-5--3-0000000000000000-|        2x  Chorus
                                /
-------------------------|
-------------------------|   1x
-------------------------|
-6-5--3------------------|

[ Tab from: http://www.guitartabs.cc/tabs/c/chimaira/the_dehumanizing_process_btab_ver_2.html ]
--------------------------------    --------------------------------|
--------------------------------    --------------------------------|
-------1---------1------2----2--    ------1-------1-----2-----------|
--0000--------000-----3----3---1    --0000-----000----3----00000000-|

--------------------------------    --------------------------------|    Verse
--------------------------------    --------------------------------|
-------1---------1------2----2--    ------1-------1-----2-----------|
--0000--------000-----3----3---1    --0000-----000----3-------------|

-------------------------|
-------------------------|   3x
-------------------------|       \
-6-5--3-0000000000000000-|        2x  Chorus
                                /
-------------------------|
-------------------------|   1x
-------------------------|
-6-5--3------------------|


---------------------222-------333----------|
--111------111------------------------------|
--------------------------------------------|
--------------------------------------------|    1x  Bridge

--666-------555--------666--------888----888-|
---------------------------------------------|
---------------------------------------------|
---------------------------------------------|


-----------------------------------|
-----------------------------------|	     8x  Breakdown
-6-----66-66---7/6-----66-66---7/--|
---0-0-------------0-0-------------|


--------------------------------------------|
--------------------------------------------|     3x
--------2-------------2---------------------|            \
0-1-3-1---3-2-1-0-1-3----3-2-1--------------|             2x   Heavy Part
                                          /
--------------------------------|
--------------------------------|   1x
--------2-------------2-2-2-----|
0-1-3-1---3-2-1-0-1-3-----------|

-----------|
-----------|   1x Bridge
-----------|
-6---6-5-3-|


-------------------------|
-------------------------|   3x
-------------------------|       \
-6-5--3-0000000000000000-|        2x  Outro
                                /
-------------------------|
-------------------------|   1x
-------------------------|
-6-5--3-00000------------|