Chimaira - Taste My Chords & Tabs

 

Taste My Chords & Tabs

Chimaira Chords & Tabs

Version: 3 Type: Tab 0 ratings
1 star 2 stars 3 stars 4 stars 5 stars
comments

Taste My Tab

Band: Chimaira
Title: Taste My...
Tabber: Sqweeky


||-------------------------------------------------------------------------||
||-------------------------------------------------------------------------||
||-------------------------------------------------------------------------||
||-------------------------------------------------------------------------||
||-------------------------------------------------------------------------||
||----5--------0--5-----0-5-6--repeat--------------------------------------||
||-----------------------------------------------1-------0---1----0-1-2----||



||--------------------------------------------------------------||
||--------------------------------------------------------------||
||--------------------------------------------------------------||
||---7-----------7-------7-8------------------------------------||
||--------------------------------------------------------------||
||---5-------0--5----0-5-6------1-------0----1---0-1-2----------||
||----------------------------------1-------0----1---0-1-2------||


||---------------------------------------------------------------------||
||---------------------------------------------------------------------||
||---------------------------------------------------------------------||
||---------------------------------------------------------------------||
||---------------------------------------------------------------------||
||---1------2----/6-------2-------1------2----------------0------------||
||---1------2----/6-------2-------1------2-------/6------0-------------||



||-------------------------------------------------------------------------------------||
||-------------------------------------------------------------------------------------||
||-------------------------------------------------------------------------------------||
||-------------------------------------------------------------------------------------||
||----2-2-2-2-2---------------------------------------------------------------3-3-3-3--||
||--------------------3-3-3-3-3---2-2-2-2----2-2-2-2---5-5-5-5-5-----------------------||
||-------------------------------------------------------------------------------------||



[ Tab from: http://www.guitartabs.cc/tabs/c/chimaira/taste_my_tab_ver_3.html ]
||------------------------------------------------------------||
||------------------------------------------------------------||
||------------------------------------------------------------||
||------------------------------------------------------------||
||------------------------------------------------------------||
||---7-------3----2-----------2------5---/--8-----------------||
||---7-------3----2-----------2------5---/--8-----------------||

back to beginning

||-----------------------------------------------------------------------------||
||-----------------------------------------------------------------------------||
||-----------------------------------------------------------------------------||
||-----7-----------------7/8-------------------7/8-----------------------------||
||-----------------------------------------------------------------------------||
||-----5---0-0-0-0----5/6----0-0-0-0-----5/6----1---0---1-0-1-2----------------||
||----------0-0-0-0------------0-0-0-0--------------1---0---1-0-1-2------------||



||----------------------------------------------------------||
||----------------------------------------------------------||
||----------------------------------------------------------||
||----------------------------------------------------------||
||----------------------------------------------------------||
||---0--5-----0--6------0--8-----0---6----0--5h6p5----------||
||----------------------------------------------------------||



||---------------------------------------------------------------||
||---------------------------------------------------------------||
||---------------------------------------------------------------||
||-------7----------8----------10--------8--------6/7/6----------||
||---------------------------------------------------------------||
||-------5----------6-----------8--------6--------4/5/4----------||
||---0---------0---------0---------0---------0-------------------||



||--------------------------------------------------------||
||--------------------------------------------------------||
||--------------------------------------------------------||
||--------------------------------------------------------||
||--------------------------------------------------------||
||--0---1-1------0--1-1-----0--1------1--0--1-------------||
||--0---1-1------0--1-1-----0--1------1--0--1-------------||



||-------------------------------------------------------------||
||-------------------------------------------------------------||
||-------------------------------------------------------------||
||-------------------------------------------------------------||
||-------------------------------------------------------------||
||----------------------------------------0--0-----------------||
||--0---1-1------0--1-1-----0--1----0--0--1b-------------------||
Comments