Chimaira - Taste My Chords & Tabs

 

Taste My Chords & Tabs

Chimaira Chords & Tabs

Version: 1 Type: Tab 0 ratings
1 star 2 stars 3 stars 4 stars 5 stars
comments

Taste My Tab

   
Chimaira - Taste My...

A---------------------------1-1-1-/4|------------------------------1-1-1-4
E-/6-6-6-7-/6-6-6-7-/6-6-6-7--------|-/6-6-6-7-/6-6-6-7-/6-6-6-7---1-1-1-4
A-----------------------------------|-------------------------------------
D-----------------------------------|-------------------------------------
G-----------------------------------|-------------------------------------
B-----------------------------------|-------------------------------------
E-----------------------------------|-------------------------------------

A-2-3-/7--3-2-3-/6-0~ (vibrate behind nut)
E-2-3-/7--3-2-------
A-------------------
D-------------------
G-------------------
B-------------------
E-------------------




A-8--4-3-/1-4-9--8--4-3-/1-4-9
E-x--x-x-/x-x-x--x--x-x-/x-x-x
A-10-6-5-/3-611-10--6-5-/3-611
D-----------------------------
G-----------------------------
B-----------------------------
E-----------------------------

A-15-/11-10-/8-11-16
E-15-/11-10-/8-11-16
A-15-/11-10-/8-11-16
D-------------------
G-------------------
B-------------------
E-------------------
[ Tab from: http://www.guitartabs.cc/tabs/c/chimaira/taste_my_tab.html ]
A-----------------------------x-------x-------x------/1-1-1-/4
E---------------------------6--6-6/8-6-6-6/8-6-6-6/8-/1-1-1-/4
A--6--------6--------6----------------------------------------
D-8-8-8-/9-8-8-8-/9-8-8-8-/9----------------------------------
G-------------------------------------------------------------
B-------------------------------------------------------------
E-------------------------------------------------------------
pm  ......   ......       ......
A---000000---000000-------000000-------1-1-1-/4
E---000000---000000-7p6h7-000000-7p6h7-1-1-1-/4
A-1--------1-----------------------------------
D----------------------------------------------
G----------------------------------------------
B----------------------------------------------
E----------------------------------------------

A------------------------------------
E------------------------------------
A--7---------------------------------
D-9-9-10-11-10-9b-9-10-11-10-11h12p11
G------------------------------------
B------------------------------------
E------------------------------------

A---x-x-x--x--
E-6--7-9--7-6-
A-8--9-11-9-8-
D-------------
G-------------
B-------------
E-------------
pm     ....................
A-2*b--1-2-1-2-4-2-1-0-00-1
E------1-2-1-2-4-2-1-0-00-1
A--------------------------
D--------------------------
G--------------------------
B--------------------------
E--------------------------
pm....................
A-0-1-0-1-3-1-00-0-0-1
E-0-1-0-1-3-1-00-0-0-1
A---------------------
D---------------------
G---------------------
B---------------------
E---------------------

A-1-2-1-2-4-2-1-1-1-1-2b-
E------------------------
A------------------------
D------------------------
G------------------------
B------------------------
E------------------------

those are the riffs...good luck pieceing them together

key

h hammer-on
p pull-off
. palm mute
/ slide
b bend
* harmonic
Comments