Chimaira - Silence Chords & Tabs

 

Silence Chords & Tabs

Chimaira Chords & Tabs

Version: 1 Type: Tab 0 ratings
1 star 2 stars 3 stars 4 stars 5 stars
comments

Silence Tab

Band: Chimaira
Title: Silence
Tabber: Sqweeky


||-------------------------------------------------------------------||
||-------------------------------------------------------------------||
||-------------------------------------------------------------------||
||-------------------------------------------------------------------||   strike and kill the string
||-------------------------------------------------------------------||
||-------------------------------------------------------------------||
||----0-0-0-0----0-0-0-0-----0-0-0-0----0-0-0-0----------------------||



||-------------------------------------------------------||
||-------------------------------------------------------||
||-------------------------------------------------------||
||-------------------------------------------------------||    palm mute and let ring
||-------------------------------------------------------||
||---0-0-0-0--------0-0-0-0------0-0-0-0-----0-0-0-0-----||
||---0-0-0-0--------0-0-0-0------0-0-0-0-----0-0-0-0-----||



||------------------------------------------------------------||
||------------------------------------------------------------||
||------------------------------------------------------------||
||------------------------------------------------------------||
||------------------------------------------------------------||
||---x--0------1--3----x--0-------1--3--1---------------------||
||---x--0------1--3----x--0-------1--3--1---------------------||


[ Tab from: http://www.guitartabs.cc/tabs/c/chimaira/silence_tab.html ]
||-------------------------------------------------------------------||
||-------------------------------------------------------------------||
||-------------------------------------------------------------------||
||-------------------------------------------------------------------||
||-------------------------------------------------------------------||
||--0-0-0---1--3--4--------------------0-0-0--1--3--1----------------||
||--0-0-0---1--3--4--------------------0-0-0--1--3--1----------------||



||--------------------------------------------------------------||
||--------------------------------------------------------------||
||-----------------9--9/7-7----7----7/10-10---------------------||
||--------------------------------------------------------------||
||-----------------7--7/5-5----5----5/8---8---------------------||
||--0-0-0-------------------------------------------------------||
||--0-0-0-------------------------------------------------------||




||---------------------------------------------------------------||
||---------------------------------------------------------------||
||-----------------9--9/7-7----7---7/12--10----------------------||
||---------------------------------------------------------------||
||-----------------7--7/5-5----5---5/10---8----------------------||
||---0-0-0-------------------------------------------------------||
||---0-0-0-------------------------------------------------------||



||---------------------------------------------------------------||
||---------------------------------------------------------------||
||-----------------9--9/12---12-----12/15---15-------------------||
||---------------------------------------------------------------||
||-----------------7--7/10---10-----10/13---13-------------------||
||--0-0-0--------------------------------------------------------||
||--0-0-0--------------------------------------------------------||
Comments